ISO-10303-21;
HEADER;
/* Generated by software containing ST-Developer
 * from STEP Tools, Inc. (www.steptools.com) 
 */

FILE_DESCRIPTION(
/* description */ (''),
/* implementation_level */ '2;1');

FILE_NAME(
/* name */ 
'E:\\National_Imports\\Product-Files\\CAD Files\\Arc Magnet\\NSN0026.s
tp',
/* time_stamp */ '2015-03-05T15:42:45-05:00',
/* author */ ('Scott Madsen'),
/* organization */ (''),
/* preprocessor_version */ 'ST-DEVELOPER v15.6',
/* originating_system */ 'Autodesk Inventor LT ',
/* authorisation */ '');

FILE_SCHEMA (('AUTOMOTIVE_DESIGN { 1 0 10303 214 3 1 1 }'));
ENDSEC;

DATA;
#10=MECHANICAL_DESIGN_GEOMETRIC_PRESENTATION_REPRESENTATION('',(#13),#175);
#11=SHAPE_REPRESENTATION_RELATIONSHIP('SRR','None',#187,#12);
#12=ADVANCED_BREP_SHAPE_REPRESENTATION($,(#14),#174);
#13=STYLED_ITEM('',(#196),#14);
#14=MANIFOLD_SOLID_BREP('Solid1',#103);
#15=CYLINDRICAL_SURFACE('',#109,1.);
#16=CYLINDRICAL_SURFACE('',#112,0.875);
#17=FACE_OUTER_BOUND('',#23,.T.);
#18=FACE_OUTER_BOUND('',#24,.T.);
#19=FACE_OUTER_BOUND('',#25,.T.);
#20=FACE_OUTER_BOUND('',#26,.T.);
#21=FACE_OUTER_BOUND('',#27,.T.);
#22=FACE_OUTER_BOUND('',#28,.T.);
#23=EDGE_LOOP('',(#69,#70,#71,#72));
#24=EDGE_LOOP('',(#73,#74,#75,#76));
#25=EDGE_LOOP('',(#77,#78,#79,#80));
#26=EDGE_LOOP('',(#81,#82,#83,#84));
#27=EDGE_LOOP('',(#85,#86,#87,#88));
#28=EDGE_LOOP('',(#89,#90,#91,#92));
#29=LINE('',#151,#37);
#30=LINE('',#154,#38);
#31=LINE('',#157,#39);
#32=LINE('',#159,#40);
#33=LINE('',#160,#41);
#34=LINE('',#164,#42);
#35=LINE('',#167,#43);
#36=LINE('',#168,#44);
#37=VECTOR('',#121,0.125);
#38=VECTOR('',#124,0.125);
#39=VECTOR('',#127,1.);
#40=VECTOR('',#128,0.125);
#41=VECTOR('',#129,1.);
#42=VECTOR('',#134,1.);
#43=VECTOR('',#137,0.125);
#44=VECTOR('',#138,1.);
#45=CIRCLE('',#106,0.875);
#46=CIRCLE('',#107,1.);
#47=CIRCLE('',#110,1.);
#48=CIRCLE('',#113,0.875);
#49=VERTEX_POINT('',#147);
#50=VERTEX_POINT('',#148);
#51=VERTEX_POINT('',#150);
#52=VERTEX_POINT('',#152);
#53=VERTEX_POINT('',#156);
#54=VERTEX_POINT('',#158);
#55=VERTEX_POINT('',#162);
#56=VERTEX_POINT('',#166);
#57=EDGE_CURVE('',#49,#50,#45,.T.);
#58=EDGE_CURVE('',#50,#51,#29,.T.);
#59=EDGE_CURVE('',#51,#52,#46,.T.);
#60=EDGE_CURVE('',#52,#49,#30,.T.);
#61=EDGE_CURVE('',#53,#50,#31,.T.);
#62=EDGE_CURVE('',#54,#53,#32,.T.);
#63=EDGE_CURVE('',#54,#51,#33,.T.);
#64=EDGE_CURVE('',#55,#54,#47,.T.);
#65=EDGE_CURVE('',#55,#52,#34,.T.);
#66=EDGE_CURVE('',#56,#55,#35,.T.);
#67=EDGE_CURVE('',#49,#56,#36,.T.);
#68=EDGE_CURVE('',#53,#56,#48,.T.);
#69=ORIENTED_EDGE('',*,*,#57,.T.);
#70=ORIENTED_EDGE('',*,*,#58,.T.);
#71=ORIENTED_EDGE('',*,*,#59,.T.);
#72=ORIENTED_EDGE('',*,*,#60,.T.);
#73=ORIENTED_EDGE('',*,*,#61,.F.);
#74=ORIENTED_EDGE('',*,*,#62,.F.);
#75=ORIENTED_EDGE('',*,*,#63,.T.);
#76=ORIENTED_EDGE('',*,*,#58,.F.);
#77=ORIENTED_EDGE('',*,*,#63,.F.);
#78=ORIENTED_EDGE('',*,*,#64,.F.);
#79=ORIENTED_EDGE('',*,*,#65,.T.);
#80=ORIENTED_EDGE('',*,*,#59,.F.);
#81=ORIENTED_EDGE('',*,*,#65,.F.);
#82=ORIENTED_EDGE('',*,*,#66,.F.);
#83=ORIENTED_EDGE('',*,*,#67,.F.);
#84=ORIENTED_EDGE('',*,*,#60,.F.);
#85=ORIENTED_EDGE('',*,*,#67,.T.);
#86=ORIENTED_EDGE('',*,*,#68,.F.);
#87=ORIENTED_EDGE('',*,*,#61,.T.);
#88=ORIENTED_EDGE('',*,*,#57,.F.);
#89=ORIENTED_EDGE('',*,*,#68,.T.);
#90=ORIENTED_EDGE('',*,*,#66,.T.);
#91=ORIENTED_EDGE('',*,*,#64,.T.);
#92=ORIENTED_EDGE('',*,*,#62,.T.);
#93=PLANE('',#105);
#94=PLANE('',#108);
#95=PLANE('',#111);
#96=PLANE('',#114);
#97=ADVANCED_FACE('',(#17),#93,.F.);
#98=ADVANCED_FACE('',(#18),#94,.T.);
#99=ADVANCED_FACE('',(#19),#15,.T.);
#100=ADVANCED_FACE('',(#20),#95,.T.);
#101=ADVANCED_FACE('',(#21),#16,.F.);
#102=ADVANCED_FACE('',(#22),#96,.T.);
#103=CLOSED_SHELL('',(#97,#98,#99,#100,#101,#102));
#104=AXIS2_PLACEMENT_3D('placement',#145,#115,#116);
#105=AXIS2_PLACEMENT_3D('',#146,#117,#118);
#106=AXIS2_PLACEMENT_3D('',#149,#119,#120);
#107=AXIS2_PLACEMENT_3D('',#153,#122,#123);
#108=AXIS2_PLACEMENT_3D('',#155,#125,#126);
#109=AXIS2_PLACEMENT_3D('',#161,#130,#131);
#110=AXIS2_PLACEMENT_3D('',#163,#132,#133);
#111=AXIS2_PLACEMENT_3D('',#165,#135,#136);
#112=AXIS2_PLACEMENT_3D('',#169,#139,#140);
#113=AXIS2_PLACEMENT_3D('',#170,#141,#142);
#114=AXIS2_PLACEMENT_3D('',#171,#143,#144);
#115=DIRECTION('axis',(0.,0.,1.));
#116=DIRECTION('refdir',(1.,0.,0.));
#117=DIRECTION('center_axis',(0.,0.,1.));
#118=DIRECTION('ref_axis',(1.,0.,0.));
#119=DIRECTION('center_axis',(0.,0.,1.));
#120=DIRECTION('ref_axis',(-0.38268343236509,-0.923879532511287,0.));
#121=DIRECTION('',(0.382683432365089,-0.923879532511287,0.));
#122=DIRECTION('center_axis',(0.,0.,-1.));
#123=DIRECTION('ref_axis',(0.38268343236509,0.923879532511287,0.));
#124=DIRECTION('',(0.382683432365091,0.923879532511286,0.));
#125=DIRECTION('center_axis',(0.923879532511287,0.382683432365089,0.));
#126=DIRECTION('ref_axis',(-0.382683432365089,0.923879532511287,0.));
#127=DIRECTION('',(0.,0.,-1.));
#128=DIRECTION('',(-0.382683432365089,0.923879532511287,0.));
#129=DIRECTION('',(0.,0.,-1.));
#130=DIRECTION('center_axis',(0.,0.,1.));
#131=DIRECTION('ref_axis',(0.38268343236509,0.923879532511287,0.));
#132=DIRECTION('center_axis',(0.,0.,1.));
#133=DIRECTION('ref_axis',(0.38268343236509,0.923879532511287,0.));
#134=DIRECTION('',(0.,0.,-1.));
#135=DIRECTION('center_axis',(-0.923879532511286,0.382683432365091,0.));
#136=DIRECTION('ref_axis',(-0.382683432365091,-0.923879532511286,0.));
#137=DIRECTION('',(-0.382683432365091,-0.923879532511286,0.));
#138=DIRECTION('',(0.,0.,1.));
#139=DIRECTION('center_axis',(0.,0.,1.));
#140=DIRECTION('ref_axis',(-0.38268343236509,-0.923879532511287,0.));
#141=DIRECTION('center_axis',(0.,0.,-1.));
#142=DIRECTION('ref_axis',(-0.38268343236509,-0.923879532511287,0.));
#143=DIRECTION('center_axis',(0.,0.,1.));
#144=DIRECTION('ref_axis',(1.,0.,0.));
#145=CARTESIAN_POINT('',(0.,0.,0.));
#146=CARTESIAN_POINT('Origin',(-1.14344990985887E-16,-0.908141879623337,
-0.5));
#147=CARTESIAN_POINT('',(-0.334848003319453,-0.808394590947376,-0.5));
#148=CARTESIAN_POINT('',(0.334848003319453,-0.808394590947376,-0.5));
#149=CARTESIAN_POINT('Origin',(0.,0.,-0.5));
#150=CARTESIAN_POINT('',(0.38268343236509,-0.923879532511287,-0.5));
#151=CARTESIAN_POINT('',(0.334848003319453,-0.808394590947376,-0.5));
#152=CARTESIAN_POINT('',(-0.38268343236509,-0.923879532511287,-0.5));
#153=CARTESIAN_POINT('Origin',(0.,0.,-0.5));
#154=CARTESIAN_POINT('',(-0.38268343236509,-0.923879532511287,-0.5));
#155=CARTESIAN_POINT('Origin',(0.38268343236509,-0.923879532511287,0.));
#156=CARTESIAN_POINT('',(0.334848003319453,-0.808394590947376,0.5));
#157=CARTESIAN_POINT('',(0.334848003319453,-0.808394590947376,0.));
#158=CARTESIAN_POINT('',(0.38268343236509,-0.923879532511287,0.5));
#159=CARTESIAN_POINT('',(0.334848003319453,-0.808394590947376,0.5));
#160=CARTESIAN_POINT('',(0.38268343236509,-0.923879532511287,0.));
#161=CARTESIAN_POINT('Origin',(0.,0.,0.));
#162=CARTESIAN_POINT('',(-0.38268343236509,-0.923879532511287,0.5));
#163=CARTESIAN_POINT('Origin',(0.,0.,0.5));
#164=CARTESIAN_POINT('',(-0.38268343236509,-0.923879532511287,0.));
#165=CARTESIAN_POINT('Origin',(-0.334848003319453,-0.808394590947376,0.));
#166=CARTESIAN_POINT('',(-0.334848003319453,-0.808394590947376,0.5));
#167=CARTESIAN_POINT('',(-0.38268343236509,-0.923879532511287,0.5));
#168=CARTESIAN_POINT('',(-0.334848003319453,-0.808394590947376,0.));
#169=CARTESIAN_POINT('Origin',(0.,0.,0.));
#170=CARTESIAN_POINT('Origin',(0.,0.,0.5));
#171=CARTESIAN_POINT('Origin',(-1.14344990985887E-16,-0.908141879623337,
0.5));
#172=UNCERTAINTY_MEASURE_WITH_UNIT(LENGTH_MEASURE(0.000393700787401575),
#176,'DISTANCE_ACCURACY_VALUE',
'Maximum model space distance between geometric entities at asserted c
onnectivities');
#173=UNCERTAINTY_MEASURE_WITH_UNIT(LENGTH_MEASURE(1.E-6),#177,
'DISTANCE_ACCURACY_VALUE',
'Maximum model space distance between geometric entities at asserted c
onnectivities');
#174=(
GEOMETRIC_REPRESENTATION_CONTEXT(3)
GLOBAL_UNCERTAINTY_ASSIGNED_CONTEXT((#172))
GLOBAL_UNIT_ASSIGNED_CONTEXT((#176,#182,#179))
REPRESENTATION_CONTEXT('','3D')
);
#175=(
GEOMETRIC_REPRESENTATION_CONTEXT(3)
GLOBAL_UNCERTAINTY_ASSIGNED_CONTEXT((#173))
GLOBAL_UNIT_ASSIGNED_CONTEXT((#177,#182,#179))
REPRESENTATION_CONTEXT('','3D')
);
#176=(
CONVERSION_BASED_UNIT('__CONSTANT UNIT inch',#178)
LENGTH_UNIT()
NAMED_UNIT(#181)
);
#177=(
LENGTH_UNIT()
NAMED_UNIT(*)
SI_UNIT(.MILLI.,.METRE.)
);
#178=LENGTH_MEASURE_WITH_UNIT(LENGTH_MEASURE(25.4),#177);
#179=(
NAMED_UNIT(*)
SI_UNIT($,.STERADIAN.)
SOLID_ANGLE_UNIT()
);
#180=DIMENSIONAL_EXPONENTS(0.,0.,0.,0.,0.,0.,0.);
#181=DIMENSIONAL_EXPONENTS(1.,0.,0.,0.,0.,0.,0.);
#182=(
CONVERSION_BASED_UNIT('degree',#184)
NAMED_UNIT(#180)
PLANE_ANGLE_UNIT()
);
#183=(
NAMED_UNIT(*)
PLANE_ANGLE_UNIT()
SI_UNIT($,.RADIAN.)
);
#184=PLANE_ANGLE_MEASURE_WITH_UNIT(PLANE_ANGLE_MEASURE(0.01745329252),#183);
#185=SHAPE_DEFINITION_REPRESENTATION(#186,#187);
#186=PRODUCT_DEFINITION_SHAPE('',$,#189);
#187=SHAPE_REPRESENTATION('',(#104),#174);
#188=PRODUCT_DEFINITION_CONTEXT('part definition',#193,'design');
#189=PRODUCT_DEFINITION('NSN0026','NSN0026',#190,#188);
#190=PRODUCT_DEFINITION_FORMATION('',$,#195);
#191=PRODUCT_RELATED_PRODUCT_CATEGORY('NSN0026','NSN0026',(#195));
#192=APPLICATION_PROTOCOL_DEFINITION('international standard',
'automotive_design',2009,#193);
#193=APPLICATION_CONTEXT(
'Core Data for Automotive Mechanical Design Process');
#194=PRODUCT_CONTEXT('part definition',#193,'mechanical');
#195=PRODUCT('NSN0026','NSN0026',$,(#194));
#196=PRESENTATION_STYLE_ASSIGNMENT((#197));
#197=SURFACE_STYLE_USAGE(.BOTH.,#198);
#198=SURFACE_SIDE_STYLE($,(#199));
#199=SURFACE_STYLE_FILL_AREA(#200);
#200=FILL_AREA_STYLE($,(#201));
#201=FILL_AREA_STYLE_COLOUR($,#202);
#202=COLOUR_RGB('',0.749019607843137,0.749019607843137,0.749019607843137);
ENDSEC;
END-ISO-10303-21;
