                                                                        S      1
,,,7HNSN0028,21HAutodesk Inventor LT ,7Hunknown,32,38,7,99,15,,1.,1,4HING      1
CH,1,0.08,15H20150305.154342,0.000393700787401575,10000.,4HAdhi,,11,0,; G      2
     186       1                                                00000000D      1
     186             -71       1       0                               0D      2
     514       2                                                00010000D      3
     514                       1       1                               0D      4
     510       3                                                00010000D      5
     510             -71       1       1                               0D      6
     510       4                                                00010000D      7
     510             -71       1       1                               0D      8
     510       5                                                00010000D      9
     510             -71       1       1                               0D     10
     510       6                                                00010000D     11
     510             -71       1       1                               0D     12
     510       7                                                00010000D     13
     510             -71       1       1                               0D     14
     510       8                                                00010000D     15
     510             -71       1       1                               0D     16
     508       9                                                00010000D     17
     508                       1       1                               0D     18
     508      10                                                00010000D     19
     508                       1       1                               0D     20
     508      11                                                00010000D     21
     508                       1       1                               0D     22
     508      12                                                00010000D     23
     508                       1       1                               0D     24
     508      13                                                00010000D     25
     508                       1       1                               0D     26
     508      14                                                00010000D     27
     508                       1       1                               0D     28
     126      15                                                00010000D     29
     126       0               5       0                               0D     30
     126      20                                                00010000D     31
     126       0               3       0                               0D     32
     126      23                                                00010000D     33
     126       0               6       0                               0D     34
     126      29                                                00010000D     35
     126       0               3       0                               0D     36
     126      32                                                00010000D     37
     126       0               3       0                               0D     38
     126      35                                                00010000D     39
     126       0               3       0                               0D     40
     126      38                                                00010000D     41
     126       0               3       0                               0D     42
     126      41                                                00010000D     43
     126       0               6       0                               0D     44
     126      47                                                00010000D     45
     126       0               3       0                               0D     46
     126      50                                                00010000D     47
     126       0               3       0                               0D     48
     126      53                                                00010000D     49
     126       0               3       0                               0D     50
     126      56                                                00010000D     51
     126       0               5       0                               0D     52
     128      61                                                00010000D     53
     128       0     -71       8       0                               0D     54
     128      69                                                00010000D     55
     128       0     -71       5       0                               0D     56
     128      74                                                00010000D     57
     128       0     -71       9       0                               0D     58
     128      83                                                00010000D     59
     128       0     -71       5       0                               0D     60
     128      88                                                00010000D     61
     128       0     -71       8       0                               0D     62
     128      96                                                00010000D     63
     128       0     -71       8       0                               0D     64
     502     104                                                00010000D     65
     502                       7       1                               0D     66
     504     111                                                00010001D     67
     504                       3       1                               0D     68
     406     114                                                00000000D     69
     406                       1      15                               0D     70
     314     115                                                00000200D     71
     314                       1       0                               0D     72
186,3,1,0,0,1,69;                                                      1P      1
514,6,5,1,7,1,9,1,11,1,13,1,15,1;                                      3P      2
510,53,1,1,17;                                                         5P      3
510,55,1,1,19;                                                         7P      4
510,57,1,1,21;                                                         9P      5
510,59,1,1,23;                                                        11P      6
510,61,1,1,25;                                                        13P      7
510,63,1,1,27;                                                        15P      8
508,4,0,67,1,1,0,0,67,2,1,0,0,67,3,1,0,0,67,4,1,0;                    17P      9
508,4,0,67,5,0,0,0,67,6,0,0,0,67,7,1,0,0,67,2,0,0;                    19P     10
508,4,0,67,7,0,0,0,67,8,0,0,0,67,9,1,0,0,67,3,0,0;                    21P     11
508,4,0,67,9,0,0,0,67,10,0,0,0,67,11,0,0,0,67,4,0,0;                  23P     12
508,4,0,67,11,1,0,0,67,12,0,0,0,67,5,1,0,0,67,1,0,0;                  25P     13
508,4,0,67,12,1,0,0,67,10,1,0,0,67,8,1,0,0,67,6,1,0;                  27P     14
126,2,2,0,0,0,0,0.,0.,0.,1.5707963267949,1.5707963267949,             29P     15
1.5707963267949,1.,0.707106781186548,1.,-0.441941738241592,           29P     16
-0.441941738241592,-0.375,0.,-0.883883476483184,-0.375,               29P     17
0.441941738241592,-0.441941738241592,-0.375,0.,1.5707963267949,       29P     18
0.,0.,0.;                                                             29P     19
126,1,1,0,0,1,0,0.,0.,0.3175,0.3175,1.,1.,0.441941738241592,          31P     20
-0.441941738241592,-0.375,0.53033008588991,-0.530330085889911,        31P     21
-0.375,0.,0.3175,0.,0.,0.;                                            31P     22
126,2,2,0,0,0,0,1.5707963267949,1.5707963267949,1.5707963267949,      33P     23
3.14159265358979,3.14159265358979,3.14159265358979,1.,                33P     24
0.707106781186547,1.,0.53033008588991,-0.530330085889911,-0.375,      33P     25
-3.05966975290397D-16,-1.06066017177982,-0.375,                       33P     26
-0.530330085889911,-0.530330085889911,-0.375,1.5707963267949,         33P     27
3.14159265358979,0.,0.,0.;                                            33P     28
126,1,1,0,0,1,0,0.,0.,0.3175,0.3175,1.,1.,-0.530330085889911,         35P     29
-0.530330085889911,-0.375,-0.441941738241592,-0.441941738241592,      35P     30
-0.375,0.,0.3175,0.,0.,0.;                                            35P     31
126,1,1,0,0,1,0,-0.9525,-0.9525,0.9525,0.9525,1.,1.,                  37P     32
0.441941738241592,-0.441941738241592,0.375,0.441941738241592,         37P     33
-0.441941738241592,-0.375,-0.9525,0.9525,0.,0.,0.;                    37P     34
126,1,1,0,0,1,0,-0.3175,-0.3175,0.,0.,1.,1.,0.53033008588991,         39P     35
-0.530330085889911,0.375,0.441941738241592,-0.441941738241592,        39P     36
0.375,-0.3175,0.,0.,0.,0.;                                            39P     37
126,1,1,0,0,1,0,-0.9525,-0.9525,0.9525,0.9525,1.,1.,                  41P     38
0.53033008588991,-0.530330085889911,0.375,0.53033008588991,           41P     39
-0.530330085889911,-0.375,-0.9525,0.9525,0.,0.,0.;                    41P     40
126,2,2,0,0,0,0,-3.14159265358979,-3.14159265358979,                  43P     41
-3.14159265358979,-1.5707963267949,-1.5707963267949,                  43P     42
-1.5707963267949,1.,0.707106781186547,1.,-0.530330085889911,          43P     43
-0.530330085889911,0.375,-3.05966975290397D-16,                       43P     44
-1.06066017177982,0.375,0.53033008588991,-0.530330085889911,          43P     45
0.375,-3.14159265358979,-1.5707963267949,0.,0.,0.;                    43P     46
126,1,1,0,0,1,0,-0.9525,-0.9525,0.9525,0.9525,1.,1.,                  45P     47
-0.530330085889911,-0.530330085889911,0.375,-0.530330085889911,       45P     48
-0.530330085889911,-0.375,-0.9525,0.9525,0.,0.,0.;                    45P     49
126,1,1,0,0,1,0,-0.3175,-0.3175,0.,0.,1.,1.,-0.441941738241592,       47P     50
-0.441941738241592,0.375,-0.530330085889911,-0.530330085889911,       47P     51
0.375,-0.3175,0.,0.,0.,0.;                                            47P     52
126,1,1,0,0,1,0,-0.9525,-0.9525,0.9525,0.9525,1.,1.,                  49P     53
-0.441941738241592,-0.441941738241592,-0.375,-0.441941738241592,      49P     54
-0.441941738241592,0.375,-0.9525,0.9525,0.,0.,0.;                     49P     55
126,2,2,0,0,0,0,-1.5707963267949,-1.5707963267949,                    51P     56
-1.5707963267949,0.,0.,0.,1.,0.707106781186548,1.,                    51P     57
0.441941738241592,-0.441941738241592,0.375,0.,                        51P     58
-0.883883476483184,0.375,-0.441941738241592,-0.441941738241592,       51P     59
0.375,-1.5707963267949,0.,0.,0.,0.;                                   51P     60
128,1,1,1,1,0,0,1,0,0,-1.34703841816037,-1.34703841816037,            53P     61
1.34703841816037,1.34703841816037,-1.15575209817861,                  53P     62
-1.15575209817861,0.41579272300849,0.41579272300849,1.,1.,1.,1.,      53P     63
0.53033008588991,-1.06066017177982,-0.375,-0.530330085889911,         53P     64
-1.06066017177982,-0.375,0.53033008588991,-0.441941738241592,         53P     65
-0.375,-0.530330085889911,-0.441941738241592,-0.375,                  53P     66
-1.34703841816037,1.34703841816037,-1.15575209817861,                 53P     67
0.41579272300849;                                                     53P     68
128,1,1,1,1,0,0,1,0,0,0.,0.,0.3175,0.3175,-0.9525,-0.9525,            55P     69
0.9525,0.9525,1.,1.,1.,1.,0.53033008588991,-0.530330085889911,        55P     70
-0.375,0.441941738241592,-0.441941738241592,-0.375,                   55P     71
0.53033008588991,-0.530330085889911,0.375,0.441941738241592,          55P     72
-0.441941738241592,0.375,0.,0.3175,-0.9525,0.9525;                    55P     73
128,1,2,1,2,0,0,0,0,0,-0.5,-0.5,0.5,0.5,-3.14159265358979,            57P     74
-3.14159265358979,-3.14159265358979,-1.5707963267949,                 57P     75
-1.5707963267949,-1.5707963267949,1.,1.,0.707106781186548,            57P     76
0.707106781186548,1.,1.,-0.530330085889911,-0.53033008588991,         57P     77
0.375,-0.530330085889911,-0.53033008588991,-0.375,                    57P     78
-1.74838271594513D-16,-1.06066017177982,0.375,                        57P     79
-1.74838271594513D-16,-1.06066017177982,-0.375,0.53033008588991,      57P     80
-0.530330085889911,0.375,0.53033008588991,-0.530330085889911,         57P     81
-0.375,-0.5,0.5,-3.14159265358979,-1.5707963267949;                   57P     82
128,1,1,1,1,0,0,1,0,0,0.,0.,0.3175,0.3175,-0.9525,-0.9525,            59P     83
0.9525,0.9525,1.,1.,1.,1.,-0.441941738241592,-0.441941738241592,      59P     84
-0.375,-0.530330085889911,-0.530330085889911,-0.375,                  59P     85
-0.441941738241592,-0.441941738241592,0.375,-0.530330085889911,       59P     86
-0.53033008588991,0.375,0.,0.3175,-0.9525,0.9525;                     59P     87
128,1,2,1,2,0,0,0,0,0,-0.6,-0.6,0.6,0.6,0.,0.,0.,                     61P     88
1.5707963267949,1.5707963267949,1.5707963267949,1.,1.,                61P     89
0.707106781186547,0.707106781186547,1.,1.,-0.441941738241592,         61P     90
-0.441941738241592,-0.375,-0.441941738241592,-0.441941738241592,      61P     91
0.375,-8.74191357972564D-17,-0.883883476483184,-0.375,                61P     92
-8.74191357972564D-17,-0.883883476483184,0.375,                       61P     93
0.441941738241592,-0.441941738241592,-0.375,0.441941738241592,        61P     94
-0.441941738241592,0.375,-0.6,0.6,0.,1.5707963267949;                 61P     95
128,1,1,1,1,0,0,1,0,0,-1.34703841816037,-1.34703841816037,            63P     96
1.34703841816037,1.34703841816037,-1.15575209817861,                  63P     97
-1.15575209817861,0.41579272300849,0.41579272300849,1.,1.,1.,1.,      63P     98
-0.530330085889911,-1.06066017177982,0.375,0.53033008588991,          63P     99
-1.06066017177982,0.375,-0.530330085889911,-0.441941738241592,        63P    100
0.375,0.53033008588991,-0.441941738241592,0.375,                      63P    101
-1.34703841816037,1.34703841816037,-1.15575209817861,                 63P    102
0.41579272300849;                                                     63P    103
502,8,-0.441941738241592,-0.441941738241592,-0.375,                   65P    104
0.441941738241592,-0.441941738241592,-0.375,0.53033008588991,         65P    105
-0.530330085889911,-0.375,-0.530330085889911,-0.530330085889911,      65P    106
-0.375,0.441941738241592,-0.441941738241592,0.375,                    65P    107
0.53033008588991,-0.530330085889911,0.375,-0.530330085889911,         65P    108
-0.530330085889911,0.375,-0.441941738241592,-0.441941738241592,       65P    109
0.375;                                                                65P    110
504,12,29,65,1,65,2,31,65,2,65,3,33,65,3,65,4,35,65,4,65,1,37,        67P    111
65,5,65,2,39,65,6,65,5,41,65,6,65,3,43,65,7,65,6,45,65,7,65,4,        67P    112
47,65,8,65,7,49,65,1,65,8,51,65,5,65,8;                               67P    113
406,1,6HSolid1;                                                       69P    114
314,74.9019607843137,74.9019607843137,74.9019607843137,;              71P    115
S      1G      2D     72P    115                                        T      1
