ISO-10303-21;
HEADER;
/* Generated by software containing ST-Developer
 * from STEP Tools, Inc. (www.steptools.com) 
 */

FILE_DESCRIPTION(
/* description */ (''),
/* implementation_level */ '2;1');

FILE_NAME(
/* name */ 
'E:\\National_Imports\\Product-Files\\CAD Files\\Cylinder Magnet\\NSN0
048.stp',
/* time_stamp */ '2015-03-05T17:41:44-05:00',
/* author */ ('Scott Madsen'),
/* organization */ (''),
/* preprocessor_version */ 'ST-DEVELOPER v15.6',
/* originating_system */ 'Autodesk Inventor LT ',
/* authorisation */ '');

FILE_SCHEMA (('AUTOMOTIVE_DESIGN { 1 0 10303 214 3 1 1 }'));
ENDSEC;

DATA;
#10=MECHANICAL_DESIGN_GEOMETRIC_PRESENTATION_REPRESENTATION('',(#13),#103);
#11=SHAPE_REPRESENTATION_RELATIONSHIP('SRR','None',#115,#12);
#12=ADVANCED_BREP_SHAPE_REPRESENTATION($,(#14),#102);
#13=STYLED_ITEM('',(#124),#14);
#14=MANIFOLD_SOLID_BREP('Solid1',#59);
#15=PLANE('',#64);
#16=PLANE('',#68);
#17=FACE_BOUND('',#26,.T.);
#18=FACE_BOUND('',#28,.T.);
#19=FACE_BOUND('',#30,.T.);
#20=FACE_BOUND('',#32,.T.);
#21=FACE_OUTER_BOUND('',#25,.T.);
#22=FACE_OUTER_BOUND('',#27,.T.);
#23=FACE_OUTER_BOUND('',#29,.T.);
#24=FACE_OUTER_BOUND('',#31,.T.);
#25=EDGE_LOOP('',(#45));
#26=EDGE_LOOP('',(#46));
#27=EDGE_LOOP('',(#47));
#28=EDGE_LOOP('',(#48));
#29=EDGE_LOOP('',(#49));
#30=EDGE_LOOP('',(#50));
#31=EDGE_LOOP('',(#51));
#32=EDGE_LOOP('',(#52));
#33=CIRCLE('',#62,0.05);
#34=CIRCLE('',#63,0.05);
#35=CIRCLE('',#65,0.125);
#36=CIRCLE('',#67,0.125);
#37=VERTEX_POINT('',#89);
#38=VERTEX_POINT('',#91);
#39=VERTEX_POINT('',#94);
#40=VERTEX_POINT('',#97);
#41=EDGE_CURVE('',#37,#37,#33,.T.);
#42=EDGE_CURVE('',#38,#38,#34,.T.);
#43=EDGE_CURVE('',#39,#39,#35,.T.);
#44=EDGE_CURVE('',#40,#40,#36,.T.);
#45=ORIENTED_EDGE('',*,*,#41,.F.);
#46=ORIENTED_EDGE('',*,*,#42,.F.);
#47=ORIENTED_EDGE('',*,*,#43,.T.);
#48=ORIENTED_EDGE('',*,*,#41,.T.);
#49=ORIENTED_EDGE('',*,*,#43,.F.);
#50=ORIENTED_EDGE('',*,*,#44,.F.);
#51=ORIENTED_EDGE('',*,*,#44,.T.);
#52=ORIENTED_EDGE('',*,*,#42,.T.);
#53=CYLINDRICAL_SURFACE('',#61,0.05);
#54=CYLINDRICAL_SURFACE('',#66,0.125);
#55=ADVANCED_FACE('',(#21,#17),#53,.F.);
#56=ADVANCED_FACE('',(#22,#18),#15,.F.);
#57=ADVANCED_FACE('',(#23,#19),#54,.T.);
#58=ADVANCED_FACE('',(#24,#20),#16,.T.);
#59=CLOSED_SHELL('',(#55,#56,#57,#58));
#60=AXIS2_PLACEMENT_3D('placement',#87,#69,#70);
#61=AXIS2_PLACEMENT_3D('',#88,#71,#72);
#62=AXIS2_PLACEMENT_3D('',#90,#73,#74);
#63=AXIS2_PLACEMENT_3D('',#92,#75,#76);
#64=AXIS2_PLACEMENT_3D('',#93,#77,#78);
#65=AXIS2_PLACEMENT_3D('',#95,#79,#80);
#66=AXIS2_PLACEMENT_3D('',#96,#81,#82);
#67=AXIS2_PLACEMENT_3D('',#98,#83,#84);
#68=AXIS2_PLACEMENT_3D('',#99,#85,#86);
#69=DIRECTION('axis',(0.,0.,1.));
#70=DIRECTION('refdir',(1.,0.,0.));
#71=DIRECTION('center_axis',(0.,0.,1.));
#72=DIRECTION('ref_axis',(-1.,0.,0.));
#73=DIRECTION('center_axis',(0.,0.,1.));
#74=DIRECTION('ref_axis',(-1.,0.,0.));
#75=DIRECTION('center_axis',(0.,0.,-1.));
#76=DIRECTION('ref_axis',(-1.,0.,0.));
#77=DIRECTION('center_axis',(0.,0.,1.));
#78=DIRECTION('ref_axis',(1.,0.,0.));
#79=DIRECTION('center_axis',(0.,0.,-1.));
#80=DIRECTION('ref_axis',(-1.,0.,0.));
#81=DIRECTION('center_axis',(0.,0.,1.));
#82=DIRECTION('ref_axis',(-1.,0.,0.));
#83=DIRECTION('center_axis',(0.,0.,1.));
#84=DIRECTION('ref_axis',(-1.,0.,0.));
#85=DIRECTION('center_axis',(0.,0.,1.));
#86=DIRECTION('ref_axis',(1.,0.,0.));
#87=CARTESIAN_POINT('',(0.,0.,0.));
#88=CARTESIAN_POINT('Origin',(0.,0.,0.));
#89=CARTESIAN_POINT('',(0.05,6.12323399573677E-18,-0.125));
#90=CARTESIAN_POINT('Origin',(0.,0.,-0.125));
#91=CARTESIAN_POINT('',(0.05,6.12323399573677E-18,0.125));
#92=CARTESIAN_POINT('Origin',(0.,0.,0.125));
#93=CARTESIAN_POINT('Origin',(-7.011837515336E-18,-2.86808188311209E-18,
-0.125));
#94=CARTESIAN_POINT('',(0.125,1.53080849893419E-17,-0.125));
#95=CARTESIAN_POINT('Origin',(0.,0.,-0.125));
#96=CARTESIAN_POINT('Origin',(0.,0.,0.));
#97=CARTESIAN_POINT('',(0.125,1.53080849893419E-17,0.125));
#98=CARTESIAN_POINT('Origin',(0.,0.,0.125));
#99=CARTESIAN_POINT('Origin',(-7.011837515336E-18,-2.86808188311209E-18,
0.125));
#100=UNCERTAINTY_MEASURE_WITH_UNIT(LENGTH_MEASURE(0.000393700787401575),
#104,'DISTANCE_ACCURACY_VALUE',
'Maximum model space distance between geometric entities at asserted c
onnectivities');
#101=UNCERTAINTY_MEASURE_WITH_UNIT(LENGTH_MEASURE(1.E-6),#105,
'DISTANCE_ACCURACY_VALUE',
'Maximum model space distance between geometric entities at asserted c
onnectivities');
#102=(
GEOMETRIC_REPRESENTATION_CONTEXT(3)
GLOBAL_UNCERTAINTY_ASSIGNED_CONTEXT((#100))
GLOBAL_UNIT_ASSIGNED_CONTEXT((#104,#110,#107))
REPRESENTATION_CONTEXT('','3D')
);
#103=(
GEOMETRIC_REPRESENTATION_CONTEXT(3)
GLOBAL_UNCERTAINTY_ASSIGNED_CONTEXT((#101))
GLOBAL_UNIT_ASSIGNED_CONTEXT((#105,#110,#107))
REPRESENTATION_CONTEXT('','3D')
);
#104=(
CONVERSION_BASED_UNIT('__CONSTANT UNIT inch',#106)
LENGTH_UNIT()
NAMED_UNIT(#109)
);
#105=(
LENGTH_UNIT()
NAMED_UNIT(*)
SI_UNIT(.MILLI.,.METRE.)
);
#106=LENGTH_MEASURE_WITH_UNIT(LENGTH_MEASURE(25.4),#105);
#107=(
NAMED_UNIT(*)
SI_UNIT($,.STERADIAN.)
SOLID_ANGLE_UNIT()
);
#108=DIMENSIONAL_EXPONENTS(0.,0.,0.,0.,0.,0.,0.);
#109=DIMENSIONAL_EXPONENTS(1.,0.,0.,0.,0.,0.,0.);
#110=(
CONVERSION_BASED_UNIT('degree',#112)
NAMED_UNIT(#108)
PLANE_ANGLE_UNIT()
);
#111=(
NAMED_UNIT(*)
PLANE_ANGLE_UNIT()
SI_UNIT($,.RADIAN.)
);
#112=PLANE_ANGLE_MEASURE_WITH_UNIT(PLANE_ANGLE_MEASURE(0.01745329252),#111);
#113=SHAPE_DEFINITION_REPRESENTATION(#114,#115);
#114=PRODUCT_DEFINITION_SHAPE('',$,#117);
#115=SHAPE_REPRESENTATION('',(#60),#102);
#116=PRODUCT_DEFINITION_CONTEXT('part definition',#121,'design');
#117=PRODUCT_DEFINITION('NSN0048','NSN0048',#118,#116);
#118=PRODUCT_DEFINITION_FORMATION('',$,#123);
#119=PRODUCT_RELATED_PRODUCT_CATEGORY('NSN0048','NSN0048',(#123));
#120=APPLICATION_PROTOCOL_DEFINITION('international standard',
'automotive_design',2009,#121);
#121=APPLICATION_CONTEXT(
'Core Data for Automotive Mechanical Design Process');
#122=PRODUCT_CONTEXT('part definition',#121,'mechanical');
#123=PRODUCT('NSN0048','NSN0048',$,(#122));
#124=PRESENTATION_STYLE_ASSIGNMENT((#125));
#125=SURFACE_STYLE_USAGE(.BOTH.,#126);
#126=SURFACE_SIDE_STYLE($,(#127));
#127=SURFACE_STYLE_FILL_AREA(#128);
#128=FILL_AREA_STYLE($,(#129));
#129=FILL_AREA_STYLE_COLOUR($,#130);
#130=COLOUR_RGB('',0.749019607843137,0.749019607843137,0.749019607843137);
ENDSEC;
END-ISO-10303-21;
