                                                                        S      1
,,,7HNSN0087,21HAutodesk Inventor LT ,7Hunknown,32,38,7,99,15,,1.,1,4HING      1
CH,1,0.08,15H20150305.181236,0.000393700787401575,10000.,4HAdhi,,11,0,; G      2
     186       1                                                00000000D      1
     186             -61       1       0                               0D      2
     514       2                                                00010000D      3
     514                       1       1                               0D      4
     510       3                                                00010000D      5
     510             -61       1       1                               0D      6
     510       4                                                00010000D      7
     510             -61       1       1                               0D      8
     510       5                                                00010000D      9
     510             -61       1       1                               0D     10
     510       6                                                00010000D     11
     510             -61       1       1                               0D     12
     510       7                                                00010000D     13
     510             -61       1       1                               0D     14
     508       8                                                00010000D     15
     508                       1       1                               0D     16
     508       9                                                00010000D     17
     508                       1       1                               0D     18
     508      10                                                00010000D     19
     508                       1       1                               0D     20
     508      11                                                00010000D     21
     508                       1       1                               0D     22
     508      12                                                00010000D     23
     508                       1       1                               0D     24
     508      13                                                00010000D     25
     508                       1       1                               0D     26
     508      14                                                00010000D     27
     508                       1       1                               0D     28
     126      15                                                00010000D     29
     126       0              11       0                               0D     30
     126      26                                                00010000D     31
     126       0               3       0                               0D     32
     126      29                                                00010000D     33
     126       0              10       0                               0D     34
     126      39                                                00010000D     35
     126       0              10       0                               0D     36
     126      49                                                00010000D     37
     126       0               2       0                               0D     38
     126      51                                                00010000D     39
     126       0              10       0                               0D     40
     126      61                                                00010000D     41
     126       0              10       0                               0D     42
     126      71                                                00010000D     43
     126       0               3       0                               0D     44
     128      74                                                00010000D     45
     128       0     -61      14       0                               0D     46
     128      88                                                00010000D     47
     128       0     -61      12       0                               0D     48
     128     100                                                00010000D     49
     128       0     -61       4       0                               0D     50
     128     104                                                00010000D     51
     128       0     -61       4       0                               0D     52
     128     108                                                00010000D     53
     128       0     -61      15       0                               0D     54
     502     123                                                00010000D     55
     502                       4       1                               0D     56
     504     127                                                00010001D     57
     504                       2       1                               0D     58
     406     129                                                00000000D     59
     406                       1      15                               0D     60
     314     130                                                00000200D     61
     314                       1       0                               0D     62
186,3,1,0,0,1,59;                                                      1P      1
514,5,5,1,7,1,9,1,11,1,13,1;                                           3P      2
510,45,1,1,15;                                                         5P      3
510,47,1,1,17;                                                         7P      4
510,49,2,1,19,21;                                                      9P      5
510,51,2,1,23,25;                                                     11P      6
510,53,1,1,27;                                                        13P      7
508,4,0,57,1,1,0,0,57,2,1,0,0,57,3,1,0,0,57,2,0,0;                    15P      8
508,4,0,57,4,0,0,0,57,5,1,0,0,57,3,0,0,0,57,5,0,0;                    17P      9
508,1,0,57,6,1,0;                                                     19P     10
508,1,0,57,1,0,0;                                                     21P     11
508,1,0,57,7,1,0;                                                     23P     12
508,1,0,57,4,1,0;                                                     25P     13
508,4,0,57,6,0,0,0,57,8,1,0,0,57,7,0,0,0,57,8,0,0;                    27P     14
126,8,2,0,1,0,0,-3.14159265358979,-3.14159265358979,                  29P     15
-3.14159265358979,-1.5707963267949,-1.5707963267949,0.,0.,            29P     16
1.5707963267949,1.5707963267949,3.14159265358979,                     29P     17
3.14159265358979,3.14159265358979,1.,0.707106781186547,1.,            29P     18
0.707106781186547,1.,0.707106781186547,1.,0.707106781186547,1.,       29P     19
0.1825,2.23498040844392D-17,0.0625,0.1825,0.1825,0.0625,              29P     20
-1.11749020422196D-17,0.1825,0.0625,-0.1825,0.1825,0.0625,            29P     21
-0.1825,0.,0.0625,-0.1825,-0.1825,0.0625,-1.11749020422196D-17,       29P     22
-0.1825,0.0625,0.1825,-0.1825,0.0625,0.1825,                          29P     23
-2.23498040844392D-17,0.0625,-3.14159265358979,3.14159265358979,      29P     24
0.,0.,0.;                                                             29P     25
126,1,1,0,0,1,0,-0.413000420870019,-0.413000420870019,                31P     26
0.413000420870019,0.413000420870019,1.,1.,0.1825,0.,0.0625,0.1,       31P     27
0.,-0.02,-0.413000420870019,0.413000420870019,0.,0.,0.;               31P     28
126,8,2,0,1,0,0,-3.14159265358979,-3.14159265358979,                  33P     29
-3.14159265358979,-1.5707963267949,-1.5707963267949,0.,0.,            33P     30
1.5707963267949,1.5707963267949,3.14159265358979,                     33P     31
3.14159265358979,3.14159265358979,1.,0.707106781186547,1.,            33P     32
0.707106781186547,1.,0.707106781186547,1.,0.707106781186547,1.,       33P     33
0.1,-1.22464679914735D-17,-0.02,0.1,-0.1,-0.02,                       33P     34
-6.12323399573677D-18,-0.1,-0.02,-0.1,-0.1,-0.02,-0.1,0.,-0.02,       33P     35
-0.1,0.1,-0.02,-6.12323399573677D-18,0.1,-0.02,0.1,0.1,-0.02,         33P     36
0.1,1.22464679914735D-17,-0.02,-3.14159265358979,                     33P     37
3.14159265358979,0.,0.,0.;                                            33P     38
126,8,2,0,1,0,0,-3.14159265358979,-3.14159265358979,                  35P     39
-3.14159265358979,-1.5707963267949,-1.5707963267949,0.,0.,            35P     40
1.5707963267949,1.5707963267949,3.14159265358979,                     35P     41
3.14159265358979,3.14159265358979,1.,0.707106781186547,1.,            35P     42
0.707106781186547,1.,0.707106781186547,1.,0.707106781186547,1.,       35P     43
0.1,1.22464679914735D-17,-0.0625,0.1,0.1,-0.0625,                     35P     44
-6.12323399573677D-18,0.1,-0.0625,-0.1,0.1,-0.0625,-0.1,0.,           35P     45
-0.0625,-0.1,-0.1,-0.0625,-6.12323399573677D-18,-0.1,-0.0625,         35P     46
0.1,-0.1,-0.0625,0.1,-1.22464679914735D-17,-0.0625,                   35P     47
-3.14159265358979,3.14159265358979,0.,0.,0.;                          35P     48
126,1,1,0,0,1,0,-0.625,-0.625,-0.2,-0.2,1.,1.,0.1,0.,-0.0625,         37P     49
0.1,0.,-0.02,-0.625,-0.2,0.,0.,0.;                                    37P     50
126,8,2,0,1,0,0,-3.14159265358979,-3.14159265358979,                  39P     51
-3.14159265358979,-1.5707963267949,-1.5707963267949,0.,0.,            39P     52
1.5707963267949,1.5707963267949,3.14159265358979,                     39P     53
3.14159265358979,3.14159265358979,1.,0.707106781186547,1.,            39P     54
0.707106781186548,1.,0.707106781186548,1.,0.707106781186547,1.,       39P     55
0.375,4.59242549680257D-17,0.0625,0.375,0.375,0.0625,                 39P     56
-2.29621274840129D-17,0.375,0.0625,-0.375,0.375,0.0625,-0.375,        39P     57
0.,0.0625,-0.375,-0.375,0.0625,-2.29621274840129D-17,-0.375,          39P     58
0.0625,0.375,-0.375,0.0625,0.375,-4.59242549680257D-17,0.0625,        39P     59
-3.14159265358979,3.14159265358979,0.,0.,0.;                          39P     60
126,8,2,0,1,0,0,-3.14159265358979,-3.14159265358979,                  41P     61
-3.14159265358979,-1.5707963267949,-1.5707963267949,0.,0.,            41P     62
1.5707963267949,1.5707963267949,3.14159265358979,                     41P     63
3.14159265358979,3.14159265358979,1.,0.707106781186547,1.,            41P     64
0.707106781186548,1.,0.707106781186548,1.,0.707106781186547,1.,       41P     65
0.375,-4.59242549680257D-17,-0.0625,0.375,-0.375,-0.0625,             41P     66
-2.29621274840129D-17,-0.375,-0.0625,-0.375,-0.375,-0.0625,           41P     67
-0.375,0.,-0.0625,-0.375,0.375,-0.0625,-2.29621274840129D-17,         41P     68
0.375,-0.0625,0.375,0.375,-0.0625,0.375,4.59242549680257D-17,         41P     69
-0.0625,-3.14159265358979,3.14159265358979,0.,0.,0.;                  41P     70
126,1,1,0,0,1,0,-0.166666666666667,-0.166666666666667,                43P     71
0.166666666666667,0.166666666666667,1.,1.,0.375,0.,0.0625,0.375,      43P     72
0.,-0.0625,-0.166666666666667,0.166666666666667,0.,0.,0.;             43P     73
128,1,8,1,2,0,1,0,0,0,-0.413000420870019,-0.413000420870019,          45P     74
0.413000420870019,0.413000420870019,-3.14159265358979,                45P     75
-3.14159265358979,-3.14159265358979,-1.5707963267949,                 45P     76
-1.5707963267949,0.,0.,1.5707963267949,1.5707963267949,               45P     77
3.14159265358979,3.14159265358979,3.14159265358979,1.,1.,             45P     78
0.707106781186548,0.707106781186548,1.,1.,0.707106781186548,          45P     79
0.707106781186548,1.,1.,0.707106781186548,0.707106781186548,1.,       45P     80
1.,0.707106781186548,0.707106781186548,1.,1.,0.1,0.,-0.02,            45P     81
0.1825,0.,0.0625,0.1,0.1,-0.02,0.1825,0.1825,0.0625,0.,0.1,           45P     82
-0.02,0.,0.1825,0.0625,-0.1,0.1,-0.02,-0.1825,0.1825,0.0625,          45P     83
-0.1,0.,-0.02,-0.1825,0.,0.0625,-0.1,-0.1,-0.02,-0.1825,-0.1825,      45P     84
0.0625,0.,-0.1,-0.02,0.,-0.1825,0.0625,0.1,-0.1,-0.02,0.1825,         45P     85
-0.1825,0.0625,0.1,0.,-0.02,0.1825,0.,0.0625,-0.413000420870019,      45P     86
0.413000420870019,-3.14159265358979,3.14159265358979;                 45P     87
128,1,8,1,2,0,1,0,0,0,-0.625,-0.625,-0.2,-0.2,-3.14159265358979,      47P     88
-3.14159265358979,-3.14159265358979,-1.5707963267949,                 47P     89
-1.5707963267949,0.,0.,1.5707963267949,1.5707963267949,               47P     90
3.14159265358979,3.14159265358979,3.14159265358979,1.,1.,             47P     91
0.707106781186548,0.707106781186548,1.,1.,0.707106781186548,          47P     92
0.707106781186548,1.,1.,0.707106781186548,0.707106781186548,1.,       47P     93
1.,0.707106781186548,0.707106781186548,1.,1.,0.1,0.,-0.0625,0.1,      47P     94
0.,-0.02,0.1,0.1,-0.0625,0.1,0.1,-0.02,0.,0.1,-0.0625,0.,0.1,         47P     95
-0.02,-0.1,0.1,-0.0625,-0.1,0.1,-0.02,-0.1,0.,-0.0625,-0.1,0.,        47P     96
-0.02,-0.1,-0.1,-0.0625,-0.1,-0.1,-0.02,0.,-0.1,-0.0625,0.,-0.1,      47P     97
-0.02,0.1,-0.1,-0.0625,0.1,-0.1,-0.02,0.1,0.,-0.0625,0.1,0.,          47P     98
-0.02,-0.625,-0.2,-3.14159265358979,3.14159265358979;                 47P     99
128,1,1,1,1,0,0,1,0,0,-0.9525,-0.9525,0.9525,0.9525,-0.9525,          49P    100
-0.9525,0.9525,0.9525,1.,1.,1.,1.,-0.375,-0.375,0.0625,0.375,         49P    101
-0.375,0.0625,-0.375,0.375,0.0625,0.375,0.375,0.0625,-0.9525,         49P    102
0.9525,-0.9525,0.9525;                                                49P    103
128,1,1,1,1,0,0,1,0,0,-0.9525,-0.9525,0.9525,0.9525,-0.9525,          51P    104
-0.9525,0.9525,0.9525,1.,1.,1.,1.,0.375,-0.375,-0.0625,-0.375,        51P    105
-0.375,-0.0625,0.375,0.375,-0.0625,-0.375,0.375,-0.0625,-0.9525,      51P    106
0.9525,-0.9525,0.9525;                                                51P    107
128,1,8,1,2,0,1,0,0,0,-0.166666666666667,-0.166666666666667,          53P    108
0.166666666666667,0.166666666666667,-3.14159265358979,                53P    109
-3.14159265358979,-3.14159265358979,-1.5707963267949,                 53P    110
-1.5707963267949,0.,0.,1.5707963267949,1.5707963267949,               53P    111
3.14159265358979,3.14159265358979,3.14159265358979,1.,1.,             53P    112
0.707106781186548,0.707106781186548,1.,1.,0.707106781186548,          53P    113
0.707106781186548,1.,1.,0.707106781186548,0.707106781186548,1.,       53P    114
1.,0.707106781186548,0.707106781186548,1.,1.,0.375,0.,0.0625,         53P    115
0.375,0.,-0.0625,0.375,0.375,0.0625,0.375,0.375,-0.0625,0.,           53P    116
0.375,0.0625,0.,0.375,-0.0625,-0.375,0.375,0.0625,-0.375,0.375,       53P    117
-0.0625,-0.375,0.,0.0625,-0.375,0.,-0.0625,-0.375,-0.375,0.0625,      53P    118
-0.375,-0.375,-0.0625,0.,-0.375,0.0625,0.,-0.375,-0.0625,0.375,       53P    119
-0.375,0.0625,0.375,-0.375,-0.0625,0.375,0.,0.0625,0.375,0.,          53P    120
-0.0625,-0.166666666666667,0.166666666666667,-3.14159265358979,       53P    121
3.14159265358979;                                                     53P    122
502,5,0.1825,2.23498040844392D-17,0.0625,0.1,                         55P    123
-1.22464679914735D-17,-0.02,0.1,1.22464679914735D-17,-0.0625,         55P    124
0.375,4.59242549680257D-17,0.0625,0.375,4.59242549680257D-17,         55P    125
-0.0625;                                                              55P    126
504,8,29,55,1,55,1,31,55,1,55,2,33,55,2,55,2,35,55,3,55,3,37,55,      57P    127
3,55,2,39,55,4,55,4,41,55,5,55,5,43,55,4,55,5;                        57P    128
406,1,6HSolid1;                                                       59P    129
314,74.9019607843137,74.9019607843137,74.9019607843137,;              61P    130
S      1G      2D     62P    130                                        T      1
