                                                                        S      1
,,,7HNSN0090,21HAutodesk Inventor LT ,7Hunknown,32,38,7,99,15,,1.,1,4HING      1
CH,1,0.08,15H20150305.181213,0.000393700787401575,10000.,4HAdhi,,11,0,; G      2
     186       1                                                00000000D      1
     186             -61       1       0                               0D      2
     514       2                                                00010000D      3
     514                       1       1                               0D      4
     510       3                                                00010000D      5
     510             -61       1       1                               0D      6
     510       4                                                00010000D      7
     510             -61       1       1                               0D      8
     510       5                                                00010000D      9
     510             -61       1       1                               0D     10
     510       6                                                00010000D     11
     510             -61       1       1                               0D     12
     510       7                                                00010000D     13
     510             -61       1       1                               0D     14
     508       8                                                00010000D     15
     508                       1       1                               0D     16
     508       9                                                00010000D     17
     508                       1       1                               0D     18
     508      10                                                00010000D     19
     508                       1       1                               0D     20
     508      11                                                00010000D     21
     508                       1       1                               0D     22
     508      12                                                00010000D     23
     508                       1       1                               0D     24
     508      13                                                00010000D     25
     508                       1       1                               0D     26
     508      14                                                00010000D     27
     508                       1       1                               0D     28
     126      15                                                00010000D     29
     126       0              11       0                               0D     30
     126      26                                                00010000D     31
     126       0               4       0                               0D     32
     126      30                                                00010000D     33
     126       0              13       0                               0D     34
     126      43                                                00010000D     35
     126       0              10       0                               0D     36
     126      53                                                00010000D     37
     126       0               4       0                               0D     38
     126      57                                                00010000D     39
     126       0              10       0                               0D     40
     126      67                                                00010000D     41
     126       0              10       0                               0D     42
     126      77                                                00010000D     43
     126       0               2       0                               0D     44
     128      79                                                00010000D     45
     128       0     -61      18       0                               0D     46
     128      97                                                00010000D     47
     128       0     -61      18       0                               0D     48
     128     115                                                00010000D     49
     128       0     -61       3       0                               0D     50
     128     118                                                00010000D     51
     128       0     -61       3       0                               0D     52
     128     121                                                00010000D     53
     128       0     -61      13       0                               0D     54
     502     134                                                00010000D     55
     502                       4       1                               0D     56
     504     138                                                00010001D     57
     504                       2       1                               0D     58
     406     140                                                00000000D     59
     406                       1      15                               0D     60
     314     141                                                00000200D     61
     314                       1       0                               0D     62
186,3,1,0,0,1,59;                                                      1P      1
514,5,5,1,7,1,9,1,11,1,13,1;                                           3P      2
510,45,1,1,15;                                                         5P      3
510,47,1,1,17;                                                         7P      4
510,49,2,1,19,21;                                                      9P      5
510,51,2,1,23,25;                                                     11P      6
510,53,1,1,27;                                                        13P      7
508,4,0,57,1,1,0,0,57,2,1,0,0,57,3,1,0,0,57,2,0,0;                    15P      8
508,4,0,57,4,0,0,0,57,5,1,0,0,57,3,0,0,0,57,5,0,0;                    17P      9
508,1,0,57,6,1,0;                                                     19P     10
508,1,0,57,1,0,0;                                                     21P     11
508,1,0,57,7,1,0;                                                     23P     12
508,1,0,57,4,1,0;                                                     25P     13
508,4,0,57,6,0,0,0,57,8,1,0,0,57,7,0,0,0,57,8,0,0;                    27P     14
126,8,2,0,1,0,0,-3.14159265358979,-3.14159265358979,                  29P     15
-3.14159265358979,-1.5707963267949,-1.5707963267949,0.,0.,            29P     16
1.5707963267949,1.5707963267949,3.14159265358979,                     29P     17
3.14159265358979,3.14159265358979,1.,0.707106781186548,1.,            29P     18
0.707106781186548,1.,0.707106781186548,1.,0.707106781186548,1.,       29P     19
0.1375,1.68388934882761D-17,0.0625,0.1375,0.1375,0.0625,              29P     20
-8.41944674413805D-18,0.1375,0.0625,-0.1375,0.1375,0.0625,            29P     21
-0.1375,0.,0.0625,-0.1375,-0.1375,0.0625,-8.41944674413805D-18,       29P     22
-0.1375,0.0625,0.1375,-0.1375,0.0625,0.1375,                          29P     23
-1.68388934882761D-17,0.0625,-3.14159265358979,3.14159265358979,      29P     24
0.,0.,0.;                                                             29P     25
126,1,1,0,0,1,0,-0.415945165403852,-0.415945165403852,                31P     26
0.415945165403851,0.415945165403851,1.,1.,0.1375,0.,0.0625,           31P     27
0.075,0.,1.63910879619856D-17,-0.415945165403852,                     31P     28
0.415945165403851,0.,0.,0.;                                           31P     29
126,8,2,0,1,0,0,-3.14159265358979,-3.14159265358979,                  33P     30
-3.14159265358979,-1.5707963267949,-1.5707963267949,0.,0.,            33P     31
1.5707963267949,1.5707963267949,3.14159265358979,                     33P     32
3.14159265358979,3.14159265358979,1.,0.707106781186547,1.,            33P     33
0.707106781186547,1.,0.707106781186547,1.,0.707106781186547,1.,       33P     34
0.075,-9.18485099360515D-18,1.09273919746571D-17,0.075,-0.075,        33P     35
1.09273919746571D-17,-4.59242549680257D-18,-0.075,                    33P     36
1.09273919746571D-17,-0.075,-0.075,1.09273919746571D-17,-0.075,       33P     37
0.,1.09273919746571D-17,-0.075,0.075,1.09273919746571D-17,            33P     38
-4.59242549680257D-18,0.075,1.09273919746571D-17,0.075,0.075,         33P     39
1.09273919746571D-17,0.075,9.18485099360515D-18,                      33P     40
1.09273919746571D-17,-3.14159265358979,3.14159265358979,0.,0.,        33P     41
0.;                                                                   33P     42
126,8,2,0,1,0,0,-3.14159265358979,-3.14159265358979,                  35P     43
-3.14159265358979,-1.5707963267949,-1.5707963267949,0.,0.,            35P     44
1.5707963267949,1.5707963267949,3.14159265358979,                     35P     45
3.14159265358979,3.14159265358979,1.,0.707106781186547,1.,            35P     46
0.707106781186547,1.,0.707106781186547,1.,0.707106781186547,1.,       35P     47
0.075,9.18485099360515D-18,-0.0625,0.075,0.075,-0.0625,               35P     48
-4.59242549680257D-18,0.075,-0.0625,-0.075,0.075,-0.0625,-0.075,      35P     49
0.,-0.0625,-0.075,-0.075,-0.0625,-4.59242549680257D-18,-0.075,        35P     50
-0.0625,0.075,-0.075,-0.0625,0.075,-9.18485099360515D-18,             35P     51
-0.0625,-3.14159265358979,3.14159265358979,0.,0.,0.;                  35P     52
126,1,1,0,0,1,0,-0.833333333333333,-0.833333333333333,                37P     53
1.11022302462516D-16,1.11022302462516D-16,1.,1.,0.075,0.,             37P     54
-0.0625,0.075,0.,1.09273919746571D-17,-0.833333333333333,             37P     55
1.11022302462516D-16,0.,0.,0.;                                        37P     56
126,8,2,0,1,0,0,-3.14159265358979,-3.14159265358979,                  39P     57
-3.14159265358979,-1.5707963267949,-1.5707963267949,0.,0.,            39P     58
1.5707963267949,1.5707963267949,3.14159265358979,                     39P     59
3.14159265358979,3.14159265358979,1.,0.707106781186548,1.,            39P     60
0.707106781186548,1.,0.707106781186548,1.,0.707106781186548,1.,       39P     61
0.25,3.06161699786838D-17,0.0625,0.25,0.25,0.0625,                    39P     62
-1.53080849893419D-17,0.25,0.0625,-0.25,0.25,0.0625,-0.25,0.,         39P     63
0.0625,-0.25,-0.25,0.0625,-1.53080849893419D-17,-0.25,0.0625,         39P     64
0.25,-0.25,0.0625,0.25,-3.06161699786838D-17,0.0625,                  39P     65
-3.14159265358979,3.14159265358979,0.,0.,0.;                          39P     66
126,8,2,0,1,0,0,-3.14159265358979,-3.14159265358979,                  41P     67
-3.14159265358979,-1.5707963267949,-1.5707963267949,0.,0.,            41P     68
1.5707963267949,1.5707963267949,3.14159265358979,                     41P     69
3.14159265358979,3.14159265358979,1.,0.707106781186548,1.,            41P     70
0.707106781186548,1.,0.707106781186548,1.,0.707106781186548,1.,       41P     71
0.25,-3.06161699786838D-17,-0.0625,0.25,-0.25,-0.0625,                41P     72
-1.53080849893419D-17,-0.25,-0.0625,-0.25,-0.25,-0.0625,-0.25,        41P     73
0.,-0.0625,-0.25,0.25,-0.0625,-1.53080849893419D-17,0.25,             41P     74
-0.0625,0.25,0.25,-0.0625,0.25,3.06161699786838D-17,-0.0625,          41P     75
-3.14159265358979,3.14159265358979,0.,0.,0.;                          41P     76
126,1,1,0,0,1,0,-0.25,-0.25,0.25,0.25,1.,1.,0.25,0.,0.0625,0.25,      43P     77
0.,-0.0625,-0.25,0.25,0.,0.,0.;                                       43P     78
128,1,8,1,2,0,1,0,0,0,-0.415945165403851,-0.415945165403851,          45P     79
0.415945165403852,0.415945165403852,-3.14159265358979,                45P     80
-3.14159265358979,-3.14159265358979,-1.5707963267949,                 45P     81
-1.5707963267949,0.,0.,1.5707963267949,1.5707963267949,               45P     82
3.14159265358979,3.14159265358979,3.14159265358979,1.,1.,             45P     83
0.707106781186548,0.707106781186548,1.,1.,0.707106781186548,          45P     84
0.707106781186548,1.,1.,0.707106781186548,0.707106781186548,1.,       45P     85
1.,0.707106781186548,0.707106781186548,1.,1.,0.075,0.,                45P     86
1.63910879619856D-17,0.1375,0.,0.0625,0.075,0.075,                    45P     87
1.63910879619856D-17,0.1375,0.1375,0.0625,0.,0.075,                   45P     88
1.63910879619856D-17,0.,0.1375,0.0625,-0.075,0.075,                   45P     89
1.63910879619856D-17,-0.1375,0.1375,0.0625,-0.075,0.,                 45P     90
1.63910879619856D-17,-0.1375,0.,0.0625,-0.075,-0.075,                 45P     91
1.63910879619856D-17,-0.1375,-0.1375,0.0625,0.,-0.075,                45P     92
1.63910879619856D-17,0.,-0.1375,0.0625,0.075,-0.075,                  45P     93
1.63910879619856D-17,0.1375,-0.1375,0.0625,0.075,0.,                  45P     94
1.63910879619856D-17,0.1375,0.,0.0625,-0.415945165403851,             45P     95
0.415945165403852,-3.14159265358979,3.14159265358979;                 45P     96
128,1,8,1,2,0,1,0,0,0,-0.833333333333333,-0.833333333333333,          47P     97
1.11022302462516D-16,1.11022302462516D-16,-3.14159265358979,          47P     98
-3.14159265358979,-3.14159265358979,-1.5707963267949,                 47P     99
-1.5707963267949,0.,0.,1.5707963267949,1.5707963267949,               47P    100
3.14159265358979,3.14159265358979,3.14159265358979,1.,1.,             47P    101
0.707106781186548,0.707106781186548,1.,1.,0.707106781186548,          47P    102
0.707106781186548,1.,1.,0.707106781186548,0.707106781186548,1.,       47P    103
1.,0.707106781186548,0.707106781186548,1.,1.,0.075,0.,-0.0625,        47P    104
0.075,0.,1.09273919746571D-17,0.075,0.075,-0.0625,0.075,0.075,        47P    105
1.09273919746571D-17,0.,0.075,-0.0625,0.,0.075,                       47P    106
1.09273919746571D-17,-0.075,0.075,-0.0625,-0.075,0.075,               47P    107
1.09273919746571D-17,-0.075,0.,-0.0625,-0.075,0.,                     47P    108
1.09273919746571D-17,-0.075,-0.075,-0.0625,-0.075,-0.075,             47P    109
1.09273919746571D-17,0.,-0.075,-0.0625,0.,-0.075,                     47P    110
1.09273919746571D-17,0.075,-0.075,-0.0625,0.075,-0.075,               47P    111
1.09273919746571D-17,0.075,0.,-0.0625,0.075,0.,                       47P    112
1.09273919746571D-17,-0.833333333333333,1.11022302462516D-16,         47P    113
-3.14159265358979,3.14159265358979;                                   47P    114
128,1,1,1,1,0,0,1,0,0,-0.635,-0.635,0.635,0.635,-0.635,-0.635,        49P    115
0.635,0.635,1.,1.,1.,1.,-0.25,-0.25,0.0625,0.25,-0.25,0.0625,         49P    116
-0.25,0.25,0.0625,0.25,0.25,0.0625,-0.635,0.635,-0.635,0.635;         49P    117
128,1,1,1,1,0,0,1,0,0,-0.635,-0.635,0.635,0.635,-0.635,-0.635,        51P    118
0.635,0.635,1.,1.,1.,1.,0.25,-0.25,-0.0625,-0.25,-0.25,-0.0625,       51P    119
0.25,0.25,-0.0625,-0.25,0.25,-0.0625,-0.635,0.635,-0.635,0.635;       51P    120
128,1,8,1,2,0,1,0,0,0,-0.25,-0.25,0.25,0.25,-3.14159265358979,        53P    121
-3.14159265358979,-3.14159265358979,-1.5707963267949,                 53P    122
-1.5707963267949,0.,0.,1.5707963267949,1.5707963267949,               53P    123
3.14159265358979,3.14159265358979,3.14159265358979,1.,1.,             53P    124
0.707106781186548,0.707106781186548,1.,1.,0.707106781186548,          53P    125
0.707106781186548,1.,1.,0.707106781186548,0.707106781186548,1.,       53P    126
1.,0.707106781186548,0.707106781186548,1.,1.,0.25,0.,0.0625,          53P    127
0.25,0.,-0.0625,0.25,0.25,0.0625,0.25,0.25,-0.0625,0.,0.25,           53P    128
0.0625,0.,0.25,-0.0625,-0.25,0.25,0.0625,-0.25,0.25,-0.0625,          53P    129
-0.25,0.,0.0625,-0.25,0.,-0.0625,-0.25,-0.25,0.0625,-0.25,-0.25,      53P    130
-0.0625,0.,-0.25,0.0625,0.,-0.25,-0.0625,0.25,-0.25,0.0625,0.25,      53P    131
-0.25,-0.0625,0.25,0.,0.0625,0.25,0.,-0.0625,-0.25,0.25,              53P    132
-3.14159265358979,3.14159265358979;                                   53P    133
502,5,0.1375,1.68388934882761D-17,0.0625,0.075,                       55P    134
-9.18485099360515D-18,1.09273919746571D-17,0.075,                     55P    135
9.18485099360515D-18,-0.0625,0.25,3.06161699786838D-17,0.0625,        55P    136
0.25,3.06161699786838D-17,-0.0625;                                    55P    137
504,8,29,55,1,55,1,31,55,1,55,2,33,55,2,55,2,35,55,3,55,3,37,55,      57P    138
3,55,2,39,55,4,55,4,41,55,5,55,5,43,55,4,55,5;                        57P    139
406,1,6HSolid1;                                                       59P    140
314,74.9019607843137,74.9019607843137,74.9019607843137,;              61P    141
S      1G      2D     62P    141                                        T      1
