                                                                        S      1
,,,7HNSN0015,21HAutodesk Inventor LT ,7Hunknown,32,38,7,99,15,,1.,1,4HING      1
CH,1,0.08,15H20150305.181123,0.000393700787401575,10000.,4HAdhi,,11,0,; G      2
     186       1                                                00000000D      1
     186             -51       1       0                               0D      2
     514       2                                                00010000D      3
     514                       1       1                               0D      4
     510       3                                                00010000D      5
     510             -51       1       1                               0D      6
     510       4                                                00010000D      7
     510             -51       1       1                               0D      8
     510       5                                                00010000D      9
     510             -51       1       1                               0D     10
     510       6                                                00010000D     11
     510             -51       1       1                               0D     12
     508       7                                                00010000D     13
     508                       1       1                               0D     14
     508       8                                                00010000D     15
     508                       1       1                               0D     16
     508       9                                                00010000D     17
     508                       1       1                               0D     18
     508      10                                                00010000D     19
     508                       1       1                               0D     20
     508      11                                                00010000D     21
     508                       1       1                               0D     22
     508      12                                                00010000D     23
     508                       1       1                               0D     24
     126      13                                                00010000D     25
     126       0              11       0                               0D     26
     126      24                                                00010000D     27
     126       0               3       0                               0D     28
     126      27                                                00010000D     29
     126       0              11       0                               0D     30
     126      38                                                00010000D     31
     126       0              10       0                               0D     32
     126      48                                                00010000D     33
     126       0              10       0                               0D     34
     126      58                                                00010000D     35
     126       0               3       0                               0D     36
     128      61                                                00010000D     37
     128       0     -51      15       0                               0D     38
     128      76                                                00010000D     39
     128       0     -51       4       0                               0D     40
     128      80                                                00010000D     41
     128       0     -51       4       0                               0D     42
     128      84                                                00010000D     43
     128       0     -51      15       0                               0D     44
     502      99                                                00010000D     45
     502                       3       1                               0D     46
     504     102                                                00010001D     47
     504                       2       1                               0D     48
     406     104                                                00000000D     49
     406                       1      15                               0D     50
     314     105                                                00000200D     51
     314                       1       0                               0D     52
186,3,1,0,0,1,49;                                                      1P      1
514,4,5,1,7,1,9,1,11,1;                                                3P      2
510,37,1,1,13;                                                         5P      3
510,39,2,1,15,17;                                                      7P      4
510,41,2,1,19,21;                                                      9P      5
510,43,1,1,23;                                                        11P      6
508,4,0,47,1,0,0,0,47,2,1,0,0,47,3,0,0,0,47,2,0,0;                    13P      7
508,1,0,47,4,1,0;                                                     15P      8
508,1,0,47,3,1,0;                                                     17P      9
508,1,0,47,5,1,0;                                                     19P     10
508,1,0,47,1,1,0;                                                     21P     11
508,4,0,47,4,0,0,0,47,6,1,0,0,47,5,0,0,0,47,6,0,0;                    23P     12
126,8,2,0,1,0,0,-3.14159265358979,-3.14159265358979,                  25P     13
-3.14159265358979,-1.5707963267949,-1.5707963267949,0.,0.,            25P     14
1.5707963267949,1.5707963267949,3.14159265358979,                     25P     15
3.14159265358979,3.14159265358979,1.,0.707106781186547,1.,            25P     16
0.707106781186548,1.,0.707106781186548,1.,0.707106781186547,1.,       25P     17
0.1875,2.29621274840129D-17,-0.0625,0.1875,0.1875,-0.0625,            25P     18
-1.14810637420064D-17,0.1875,-0.0625,-0.1875,0.1875,-0.0625,          25P     19
-0.1875,0.,-0.0625,-0.1875,-0.1875,-0.0625,                           25P     20
-1.14810637420064D-17,-0.1875,-0.0625,0.1875,-0.1875,-0.0625,         25P     21
0.1875,-2.29621274840129D-17,-0.0625,-3.14159265358979,               25P     22
3.14159265358979,0.,0.,0.;                                            25P     23
126,1,1,0,0,1,0,-0.333333333333333,-0.333333333333333,0.33328,        27P     24
0.33328,1.,1.,0.1875,0.,-0.0625,0.1875,0.,0.06249,                    27P     25
-0.333333333333333,0.33328,0.,0.,0.;                                  27P     26
126,8,2,0,1,0,0,-3.14159265358979,-3.14159265358979,                  29P     27
-3.14159265358979,-1.5707963267949,-1.5707963267949,0.,0.,            29P     28
1.5707963267949,1.5707963267949,3.14159265358979,                     29P     29
3.14159265358979,3.14159265358979,1.,0.707106781186547,1.,            29P     30
0.707106781186548,1.,0.707106781186548,1.,0.707106781186547,1.,       29P     31
0.1875,-2.29621274840129D-17,0.06249,0.1875,-0.1875,0.06249,          29P     32
-1.14810637420064D-17,-0.1875,0.06249,-0.1875,-0.1875,0.06249,        29P     33
-0.1875,0.,0.06249,-0.1875,0.1875,0.06249,-1.14810637420064D-17,      29P     34
0.1875,0.06249,0.1875,0.1875,0.06249,0.1875,                          29P     35
2.29621274840129D-17,0.06249,-3.14159265358979,3.14159265358979,      29P     36
0.,0.,0.;                                                             29P     37
126,8,2,0,1,0,0,-3.14159265358979,-3.14159265358979,                  31P     38
-3.14159265358979,-1.5707963267949,-1.5707963267949,0.,0.,            31P     39
1.5707963267949,1.5707963267949,3.14159265358979,                     31P     40
3.14159265358979,3.14159265358979,1.,0.707106781186547,1.,            31P     41
0.707106781186548,1.,0.707106781186548,1.,0.707106781186547,1.,       31P     42
0.375,4.59242549680257D-17,0.0625,0.375,0.375,0.0625,                 31P     43
-2.29621274840129D-17,0.375,0.0625,-0.375,0.375,0.0625,-0.375,        31P     44
0.,0.0625,-0.375,-0.375,0.0625,-2.29621274840129D-17,-0.375,          31P     45
0.0625,0.375,-0.375,0.0625,0.375,-4.59242549680257D-17,0.0625,        31P     46
-3.14159265358979,3.14159265358979,0.,0.,0.;                          31P     47
126,8,2,0,1,0,0,-3.14159265358979,-3.14159265358979,                  33P     48
-3.14159265358979,-1.5707963267949,-1.5707963267949,0.,0.,            33P     49
1.5707963267949,1.5707963267949,3.14159265358979,                     33P     50
3.14159265358979,3.14159265358979,1.,0.707106781186547,1.,            33P     51
0.707106781186548,1.,0.707106781186548,1.,0.707106781186547,1.,       33P     52
0.375,-4.59242549680257D-17,-0.0625,0.375,-0.375,-0.0625,             33P     53
-2.29621274840129D-17,-0.375,-0.0625,-0.375,-0.375,-0.0625,           33P     54
-0.375,0.,-0.0625,-0.375,0.375,-0.0625,-2.29621274840129D-17,         33P     55
0.375,-0.0625,0.375,0.375,-0.0625,0.375,4.59242549680257D-17,         33P     56
-0.0625,-3.14159265358979,3.14159265358979,0.,0.,0.;                  33P     57
126,1,1,0,0,1,0,-0.166666666666667,-0.166666666666667,                35P     58
0.166666666666667,0.166666666666667,1.,1.,0.375,0.,0.0625,0.375,      35P     59
0.,-0.0625,-0.166666666666667,0.166666666666667,0.,0.,0.;             35P     60
128,1,8,1,2,0,1,0,0,0,-0.333333333333333,-0.333333333333333,          37P     61
0.33328,0.33328,-3.14159265358979,-3.14159265358979,                  37P     62
-3.14159265358979,-1.5707963267949,-1.5707963267949,0.,0.,            37P     63
1.5707963267949,1.5707963267949,3.14159265358979,                     37P     64
3.14159265358979,3.14159265358979,1.,1.,0.707106781186548,            37P     65
0.707106781186548,1.,1.,0.707106781186548,0.707106781186548,1.,       37P     66
1.,0.707106781186548,0.707106781186548,1.,1.,0.707106781186548,       37P     67
0.707106781186548,1.,1.,0.1875,0.,-0.0625,0.1875,0.,0.06249,          37P     68
0.1875,0.1875,-0.0625,0.1875,0.1875,0.06249,0.,0.1875,-0.0625,        37P     69
0.,0.1875,0.06249,-0.1875,0.1875,-0.0625,-0.1875,0.1875,0.06249,      37P     70
-0.1875,0.,-0.0625,-0.1875,0.,0.06249,-0.1875,-0.1875,-0.0625,        37P     71
-0.1875,-0.1875,0.06249,0.,-0.1875,-0.0625,0.,-0.1875,0.06249,        37P     72
0.1875,-0.1875,-0.0625,0.1875,-0.1875,0.06249,0.1875,0.,-0.0625,      37P     73
0.1875,0.,0.06249,-0.333333333333333,0.33328,-3.14159265358979,       37P     74
3.14159265358979;                                                     37P     75
128,1,1,1,1,0,0,1,0,0,-0.9525,-0.9525,0.9525,0.9525,-0.9525,          39P     76
-0.9525,0.9525,0.9525,1.,1.,1.,1.,-0.375,-0.375,0.0625,0.375,         39P     77
-0.375,0.0625,-0.375,0.375,0.0625,0.375,0.375,0.0625,-0.9525,         39P     78
0.9525,-0.9525,0.9525;                                                39P     79
128,1,1,1,1,0,0,1,0,0,-0.9525,-0.9525,0.9525,0.9525,-0.9525,          41P     80
-0.9525,0.9525,0.9525,1.,1.,1.,1.,0.375,-0.375,-0.0625,-0.375,        41P     81
-0.375,-0.0625,0.375,0.375,-0.0625,-0.375,0.375,-0.0625,-0.9525,      41P     82
0.9525,-0.9525,0.9525;                                                41P     83
128,1,8,1,2,0,1,0,0,0,-0.166666666666667,-0.166666666666667,          43P     84
0.166666666666667,0.166666666666667,-3.14159265358979,                43P     85
-3.14159265358979,-3.14159265358979,-1.5707963267949,                 43P     86
-1.5707963267949,0.,0.,1.5707963267949,1.5707963267949,               43P     87
3.14159265358979,3.14159265358979,3.14159265358979,1.,1.,             43P     88
0.707106781186548,0.707106781186548,1.,1.,0.707106781186548,          43P     89
0.707106781186548,1.,1.,0.707106781186548,0.707106781186548,1.,       43P     90
1.,0.707106781186548,0.707106781186548,1.,1.,0.375,0.,0.0625,         43P     91
0.375,0.,-0.0625,0.375,0.375,0.0625,0.375,0.375,-0.0625,0.,           43P     92
0.375,0.0625,0.,0.375,-0.0625,-0.375,0.375,0.0625,-0.375,0.375,       43P     93
-0.0625,-0.375,0.,0.0625,-0.375,0.,-0.0625,-0.375,-0.375,0.0625,      43P     94
-0.375,-0.375,-0.0625,0.,-0.375,0.0625,0.,-0.375,-0.0625,0.375,       43P     95
-0.375,0.0625,0.375,-0.375,-0.0625,0.375,0.,0.0625,0.375,0.,          43P     96
-0.0625,-0.166666666666667,0.166666666666667,-3.14159265358979,       43P     97
3.14159265358979;                                                     43P     98
502,4,0.1875,2.29621274840129D-17,-0.0625,0.1875,                     45P     99
-2.29621274840129D-17,0.06249,0.375,4.59242549680257D-17,0.0625,      45P    100
0.375,4.59242549680257D-17,-0.0625;                                   45P    101
504,6,25,45,1,45,1,27,45,1,45,2,29,45,2,45,2,31,45,3,45,3,33,45,      47P    102
4,45,4,35,45,3,45,4;                                                  47P    103
406,1,6HSolid1;                                                       49P    104
314,74.9019607843137,74.9019607843137,74.9019607843137,;              51P    105
S      1G      2D     52P    105                                        T      1
