ISO-10303-21;
HEADER;
/* Generated by software containing ST-Developer
 * from STEP Tools, Inc. (www.steptools.com) 
 */

FILE_DESCRIPTION(
/* description */ (''),
/* implementation_level */ '2;1');

FILE_NAME(
/* name */ 
'E:\\National_Imports\\Product-Files\\CAD Files\\Ring Magnet\\NSN0015.
stp',
/* time_stamp */ '2015-03-05T18:11:16-05:00',
/* author */ ('Scott Madsen'),
/* organization */ (''),
/* preprocessor_version */ 'ST-DEVELOPER v15.6',
/* originating_system */ 'Autodesk Inventor LT ',
/* authorisation */ '');

FILE_SCHEMA (('AUTOMOTIVE_DESIGN { 1 0 10303 214 3 1 1 }'));
ENDSEC;

DATA;
#10=MECHANICAL_DESIGN_GEOMETRIC_PRESENTATION_REPRESENTATION('',(#13),#123);
#11=SHAPE_REPRESENTATION_RELATIONSHIP('SRR','None',#135,#12);
#12=ADVANCED_BREP_SHAPE_REPRESENTATION($,(#14),#122);
#13=STYLED_ITEM('',(#144),#14);
#14=MANIFOLD_SOLID_BREP('Solid1',#70);
#15=PLANE('',#77);
#16=PLANE('',#79);
#17=CYLINDRICAL_SURFACE('',#75,0.1875);
#18=CYLINDRICAL_SURFACE('',#81,0.375);
#19=FACE_BOUND('',#30,.T.);
#20=FACE_BOUND('',#32,.T.);
#21=FACE_BOUND('',#34,.T.);
#22=FACE_BOUND('',#36,.T.);
#23=FACE_BOUND('',#38,.T.);
#24=FACE_OUTER_BOUND('',#29,.T.);
#25=FACE_OUTER_BOUND('',#31,.T.);
#26=FACE_OUTER_BOUND('',#33,.T.);
#27=FACE_OUTER_BOUND('',#35,.T.);
#28=FACE_OUTER_BOUND('',#37,.T.);
#29=EDGE_LOOP('',(#54));
#30=EDGE_LOOP('',(#55));
#31=EDGE_LOOP('',(#56));
#32=EDGE_LOOP('',(#57));
#33=EDGE_LOOP('',(#58));
#34=EDGE_LOOP('',(#59));
#35=EDGE_LOOP('',(#60));
#36=EDGE_LOOP('',(#61));
#37=EDGE_LOOP('',(#62));
#38=EDGE_LOOP('',(#63));
#39=CIRCLE('',#73,0.1875);
#40=CIRCLE('',#74,0.18751);
#41=CIRCLE('',#76,0.1875);
#42=CIRCLE('',#78,0.375);
#43=CIRCLE('',#80,0.375);
#44=VERTEX_POINT('',#106);
#45=VERTEX_POINT('',#108);
#46=VERTEX_POINT('',#111);
#47=VERTEX_POINT('',#114);
#48=VERTEX_POINT('',#117);
#49=EDGE_CURVE('',#44,#44,#39,.T.);
#50=EDGE_CURVE('',#45,#45,#40,.T.);
#51=EDGE_CURVE('',#46,#46,#41,.T.);
#52=EDGE_CURVE('',#47,#47,#42,.T.);
#53=EDGE_CURVE('',#48,#48,#43,.T.);
#54=ORIENTED_EDGE('',*,*,#49,.T.);
#55=ORIENTED_EDGE('',*,*,#50,.T.);
#56=ORIENTED_EDGE('',*,*,#51,.F.);
#57=ORIENTED_EDGE('',*,*,#49,.F.);
#58=ORIENTED_EDGE('',*,*,#52,.T.);
#59=ORIENTED_EDGE('',*,*,#50,.F.);
#60=ORIENTED_EDGE('',*,*,#53,.T.);
#61=ORIENTED_EDGE('',*,*,#51,.T.);
#62=ORIENTED_EDGE('',*,*,#53,.F.);
#63=ORIENTED_EDGE('',*,*,#52,.F.);
#64=CONICAL_SURFACE('',#72,0.187505,45.);
#65=ADVANCED_FACE('',(#24,#19),#64,.F.);
#66=ADVANCED_FACE('',(#25,#20),#17,.F.);
#67=ADVANCED_FACE('',(#26,#21),#15,.T.);
#68=ADVANCED_FACE('',(#27,#22),#16,.F.);
#69=ADVANCED_FACE('',(#28,#23),#18,.T.);
#70=CLOSED_SHELL('',(#65,#66,#67,#68,#69));
#71=AXIS2_PLACEMENT_3D('placement',#104,#82,#83);
#72=AXIS2_PLACEMENT_3D('',#105,#84,#85);
#73=AXIS2_PLACEMENT_3D('',#107,#86,#87);
#74=AXIS2_PLACEMENT_3D('',#109,#88,#89);
#75=AXIS2_PLACEMENT_3D('',#110,#90,#91);
#76=AXIS2_PLACEMENT_3D('',#112,#92,#93);
#77=AXIS2_PLACEMENT_3D('',#113,#94,#95);
#78=AXIS2_PLACEMENT_3D('',#115,#96,#97);
#79=AXIS2_PLACEMENT_3D('',#116,#98,#99);
#80=AXIS2_PLACEMENT_3D('',#118,#100,#101);
#81=AXIS2_PLACEMENT_3D('',#119,#102,#103);
#82=DIRECTION('axis',(0.,0.,1.));
#83=DIRECTION('refdir',(1.,0.,0.));
#84=DIRECTION('center_axis',(0.,0.,1.));
#85=DIRECTION('ref_axis',(-1.,0.,0.));
#86=DIRECTION('center_axis',(0.,0.,-1.));
#87=DIRECTION('ref_axis',(-1.,0.,0.));
#88=DIRECTION('center_axis',(0.,0.,1.));
#89=DIRECTION('ref_axis',(-1.,0.,0.));
#90=DIRECTION('center_axis',(0.,0.,1.));
#91=DIRECTION('ref_axis',(-1.,0.,0.));
#92=DIRECTION('center_axis',(0.,0.,1.));
#93=DIRECTION('ref_axis',(-1.,0.,0.));
#94=DIRECTION('center_axis',(0.,0.,1.));
#95=DIRECTION('ref_axis',(1.,0.,0.));
#96=DIRECTION('center_axis',(0.,0.,1.));
#97=DIRECTION('ref_axis',(-1.,0.,0.));
#98=DIRECTION('center_axis',(0.,0.,1.));
#99=DIRECTION('ref_axis',(1.,0.,0.));
#100=DIRECTION('center_axis',(0.,0.,-1.));
#101=DIRECTION('ref_axis',(-1.,0.,0.));
#102=DIRECTION('center_axis',(0.,0.,1.));
#103=DIRECTION('ref_axis',(-1.,0.,0.));
#104=CARTESIAN_POINT('',(0.,0.,0.));
#105=CARTESIAN_POINT('Origin',(0.,0.,0.062495));
#106=CARTESIAN_POINT('',(0.1875,-2.29621274840129E-17,0.06249));
#107=CARTESIAN_POINT('Origin',(0.,0.,0.06249));
#108=CARTESIAN_POINT('',(0.18751,2.2963352130812E-17,0.0625));
#109=CARTESIAN_POINT('Origin',(0.,0.,0.0625));
#110=CARTESIAN_POINT('Origin',(0.,0.,0.));
#111=CARTESIAN_POINT('',(0.1875,2.29621274840129E-17,-0.0625));
#112=CARTESIAN_POINT('Origin',(0.,0.,-0.0625));
#113=CARTESIAN_POINT('Origin',(-1.91234579572666E-17,7.64821835496557E-18,
0.0625));
#114=CARTESIAN_POINT('',(0.375,4.59242549680257E-17,0.0625));
#115=CARTESIAN_POINT('Origin',(0.,0.,0.0625));
#116=CARTESIAN_POINT('Origin',(-1.91234579572666E-17,7.64821835496557E-18,
-0.0625));
#117=CARTESIAN_POINT('',(0.375,4.59242549680257E-17,-0.0625));
#118=CARTESIAN_POINT('Origin',(0.,0.,-0.0625));
#119=CARTESIAN_POINT('Origin',(0.,0.,0.));
#120=UNCERTAINTY_MEASURE_WITH_UNIT(LENGTH_MEASURE(0.000393700787401575),
#124,'DISTANCE_ACCURACY_VALUE',
'Maximum model space distance between geometric entities at asserted c
onnectivities');
#121=UNCERTAINTY_MEASURE_WITH_UNIT(LENGTH_MEASURE(1.E-6),#125,
'DISTANCE_ACCURACY_VALUE',
'Maximum model space distance between geometric entities at asserted c
onnectivities');
#122=(
GEOMETRIC_REPRESENTATION_CONTEXT(3)
GLOBAL_UNCERTAINTY_ASSIGNED_CONTEXT((#120))
GLOBAL_UNIT_ASSIGNED_CONTEXT((#124,#130,#127))
REPRESENTATION_CONTEXT('','3D')
);
#123=(
GEOMETRIC_REPRESENTATION_CONTEXT(3)
GLOBAL_UNCERTAINTY_ASSIGNED_CONTEXT((#121))
GLOBAL_UNIT_ASSIGNED_CONTEXT((#125,#130,#127))
REPRESENTATION_CONTEXT('','3D')
);
#124=(
CONVERSION_BASED_UNIT('__CONSTANT UNIT inch',#126)
LENGTH_UNIT()
NAMED_UNIT(#129)
);
#125=(
LENGTH_UNIT()
NAMED_UNIT(*)
SI_UNIT(.MILLI.,.METRE.)
);
#126=LENGTH_MEASURE_WITH_UNIT(LENGTH_MEASURE(25.4),#125);
#127=(
NAMED_UNIT(*)
SI_UNIT($,.STERADIAN.)
SOLID_ANGLE_UNIT()
);
#128=DIMENSIONAL_EXPONENTS(0.,0.,0.,0.,0.,0.,0.);
#129=DIMENSIONAL_EXPONENTS(1.,0.,0.,0.,0.,0.,0.);
#130=(
CONVERSION_BASED_UNIT('degree',#132)
NAMED_UNIT(#128)
PLANE_ANGLE_UNIT()
);
#131=(
NAMED_UNIT(*)
PLANE_ANGLE_UNIT()
SI_UNIT($,.RADIAN.)
);
#132=PLANE_ANGLE_MEASURE_WITH_UNIT(PLANE_ANGLE_MEASURE(0.01745329252),#131);
#133=SHAPE_DEFINITION_REPRESENTATION(#134,#135);
#134=PRODUCT_DEFINITION_SHAPE('',$,#137);
#135=SHAPE_REPRESENTATION('',(#71),#122);
#136=PRODUCT_DEFINITION_CONTEXT('part definition',#141,'design');
#137=PRODUCT_DEFINITION('NSN0015','NSN0015',#138,#136);
#138=PRODUCT_DEFINITION_FORMATION('',$,#143);
#139=PRODUCT_RELATED_PRODUCT_CATEGORY('NSN0015','NSN0015',(#143));
#140=APPLICATION_PROTOCOL_DEFINITION('international standard',
'automotive_design',2009,#141);
#141=APPLICATION_CONTEXT(
'Core Data for Automotive Mechanical Design Process');
#142=PRODUCT_CONTEXT('part definition',#141,'mechanical');
#143=PRODUCT('NSN0015','NSN0015',$,(#142));
#144=PRESENTATION_STYLE_ASSIGNMENT((#145));
#145=SURFACE_STYLE_USAGE(.BOTH.,#146);
#146=SURFACE_SIDE_STYLE($,(#147));
#147=SURFACE_STYLE_FILL_AREA(#148);
#148=FILL_AREA_STYLE($,(#149));
#149=FILL_AREA_STYLE_COLOUR($,#150);
#150=COLOUR_RGB('',0.749019607843137,0.749019607843137,0.749019607843137);
ENDSEC;
END-ISO-10303-21;
