                                                                        S      1
,,,7HNSN0016,21HAutodesk Inventor LT ,7Hunknown,32,38,7,99,15,,1.,1,4HING      1
CH,1,0.08,15H20150305.181057,0.000393700787401575,10000.,4HAdhi,,11,0,; G      2
     186       1                                                00000000D      1
     186             -51       1       0                               0D      2
     514       2                                                00010000D      3
     514                       1       1                               0D      4
     510       3                                                00010000D      5
     510             -51       1       1                               0D      6
     510       4                                                00010000D      7
     510             -51       1       1                               0D      8
     510       5                                                00010000D      9
     510             -51       1       1                               0D     10
     510       6                                                00010000D     11
     510             -51       1       1                               0D     12
     508       7                                                00010000D     13
     508                       1       1                               0D     14
     508       8                                                00010000D     15
     508                       1       1                               0D     16
     508       9                                                00010000D     17
     508                       1       1                               0D     18
     508      10                                                00010000D     19
     508                       1       1                               0D     20
     508      11                                                00010000D     21
     508                       1       1                               0D     22
     508      12                                                00010000D     23
     508                       1       1                               0D     24
     126      13                                                00010000D     25
     126       0              10       0                               0D     26
     126      23                                                00010000D     27
     126       0               2       0                               0D     28
     126      25                                                00010000D     29
     126       0              10       0                               0D     30
     126      35                                                00010000D     31
     126       0              10       0                               0D     32
     126      45                                                00010000D     33
     126       0              10       0                               0D     34
     126      55                                                00010000D     35
     126       0               2       0                               0D     36
     128      57                                                00010000D     37
     128       0     -51      14       0                               0D     38
     128      71                                                00010000D     39
     128       0     -51       3       0                               0D     40
     128      74                                                00010000D     41
     128       0     -51       3       0                               0D     42
     128      77                                                00010000D     43
     128       0     -51      13       0                               0D     44
     502      90                                                00010000D     45
     502                       3       1                               0D     46
     504      93                                                00010001D     47
     504                       2       1                               0D     48
     406      95                                                00000000D     49
     406                       1      15                               0D     50
     314      96                                                00000200D     51
     314                       1       0                               0D     52
186,3,1,0,0,1,49;                                                      1P      1
514,4,5,1,7,1,9,1,11,1;                                                3P      2
510,37,1,1,13;                                                         5P      3
510,39,2,1,15,17;                                                      7P      4
510,41,2,1,19,21;                                                      9P      5
510,43,1,1,23;                                                        11P      6
508,4,0,47,1,0,0,0,47,2,1,0,0,47,3,0,0,0,47,2,0,0;                    13P      7
508,1,0,47,4,1,0;                                                     15P      8
508,1,0,47,3,1,0;                                                     17P      9
508,1,0,47,5,1,0;                                                     19P     10
508,1,0,47,1,1,0;                                                     21P     11
508,4,0,47,4,0,0,0,47,6,1,0,0,47,5,0,0,0,47,6,0,0;                    23P     12
126,8,2,0,1,0,0,-3.14159265358979,-3.14159265358979,                  25P     13
-3.14159265358979,-1.5707963267949,-1.5707963267949,0.,0.,            25P     14
1.5707963267949,1.5707963267949,3.14159265358979,                     25P     15
3.14159265358979,3.14159265358979,1.,0.707106781186548,1.,            25P     16
0.707106781186548,1.,0.707106781186548,1.,0.707106781186548,1.,       25P     17
0.25,3.06161699786838D-17,-0.0625,0.25,0.25,-0.0625,                  25P     18
-1.53080849893419D-17,0.25,-0.0625,-0.25,0.25,-0.0625,-0.25,0.,       25P     19
-0.0625,-0.25,-0.25,-0.0625,-1.53080849893419D-17,-0.25,-0.0625,      25P     20
0.25,-0.25,-0.0625,0.25,-3.06161699786838D-17,-0.0625,                25P     21
-3.14159265358979,3.14159265358979,0.,0.,0.;                          25P     22
126,1,1,0,0,1,0,-0.25,-0.25,0.24996,0.24996,1.,1.,0.25,0.,            27P     23
-0.0625,0.25,0.,0.06249,-0.25,0.24996,0.,0.,0.;                       27P     24
126,8,2,0,1,0,0,-3.14159265358979,-3.14159265358979,                  29P     25
-3.14159265358979,-1.5707963267949,-1.5707963267949,0.,0.,            29P     26
1.5707963267949,1.5707963267949,3.14159265358979,                     29P     27
3.14159265358979,3.14159265358979,1.,0.707106781186548,1.,            29P     28
0.707106781186548,1.,0.707106781186548,1.,0.707106781186548,1.,       29P     29
0.25,-3.06161699786838D-17,0.06249,0.25,-0.25,0.06249,                29P     30
-1.53080849893419D-17,-0.25,0.06249,-0.25,-0.25,0.06249,-0.25,        29P     31
0.,0.06249,-0.25,0.25,0.06249,-1.53080849893419D-17,0.25,             29P     32
0.06249,0.25,0.25,0.06249,0.25,3.06161699786838D-17,0.06249,          29P     33
-3.14159265358979,3.14159265358979,0.,0.,0.;                          29P     34
126,8,2,0,1,0,0,-3.14159265358979,-3.14159265358979,                  31P     35
-3.14159265358979,-1.5707963267949,-1.5707963267949,0.,0.,            31P     36
1.5707963267949,1.5707963267949,3.14159265358979,                     31P     37
3.14159265358979,3.14159265358979,1.,0.707106781186548,1.,            31P     38
0.707106781186548,1.,0.707106781186548,1.,0.707106781186548,1.,       31P     39
0.5,6.12323399573677D-17,0.0625,0.5,0.5,0.0625,                       31P     40
-3.06161699786838D-17,0.5,0.0625,-0.5,0.5,0.0625,-0.5,0.,0.0625,      31P     41
-0.5,-0.5,0.0625,-3.06161699786838D-17,-0.5,0.0625,0.5,-0.5,          31P     42
0.0625,0.5,-6.12323399573677D-17,0.0625,-3.14159265358979,            31P     43
3.14159265358979,0.,0.,0.;                                            31P     44
126,8,2,0,1,0,0,-3.14159265358979,-3.14159265358979,                  33P     45
-3.14159265358979,-1.5707963267949,-1.5707963267949,0.,0.,            33P     46
1.5707963267949,1.5707963267949,3.14159265358979,                     33P     47
3.14159265358979,3.14159265358979,1.,0.707106781186548,1.,            33P     48
0.707106781186548,1.,0.707106781186548,1.,0.707106781186548,1.,       33P     49
0.5,-6.12323399573677D-17,-0.0625,0.5,-0.5,-0.0625,                   33P     50
-3.06161699786838D-17,-0.5,-0.0625,-0.5,-0.5,-0.0625,-0.5,0.,         33P     51
-0.0625,-0.5,0.5,-0.0625,-3.06161699786838D-17,0.5,-0.0625,0.5,       33P     52
0.5,-0.0625,0.5,6.12323399573677D-17,-0.0625,-3.14159265358979,       33P     53
3.14159265358979,0.,0.,0.;                                            33P     54
126,1,1,0,0,1,0,-0.125,-0.125,0.125,0.125,1.,1.,0.5,0.,0.0625,        35P     55
0.5,0.,-0.0625,-0.125,0.125,0.,0.,0.;                                 35P     56
128,1,8,1,2,0,1,0,0,0,-0.25,-0.25,0.24996,0.24996,                    37P     57
-3.14159265358979,-3.14159265358979,-3.14159265358979,                37P     58
-1.5707963267949,-1.5707963267949,0.,0.,1.5707963267949,              37P     59
1.5707963267949,3.14159265358979,3.14159265358979,                    37P     60
3.14159265358979,1.,1.,0.707106781186548,0.707106781186548,1.,        37P     61
1.,0.707106781186548,0.707106781186548,1.,1.,0.707106781186548,       37P     62
0.707106781186548,1.,1.,0.707106781186548,0.707106781186548,1.,       37P     63
1.,0.25,0.,-0.0625,0.25,0.,0.06249,0.25,0.25,-0.0625,0.25,0.25,       37P     64
0.06249,0.,0.25,-0.0625,0.,0.25,0.06249,-0.25,0.25,-0.0625,           37P     65
-0.25,0.25,0.06249,-0.25,0.,-0.0625,-0.25,0.,0.06249,-0.25,           37P     66
-0.25,-0.0625,-0.25,-0.25,0.06249,0.,-0.25,-0.0625,0.,-0.25,          37P     67
0.06249,0.25,-0.25,-0.0625,0.25,-0.25,0.06249,0.25,0.,-0.0625,        37P     68
0.25,0.,0.06249,-0.25,0.24996,-3.14159265358979,                      37P     69
3.14159265358979;                                                     37P     70
128,1,1,1,1,0,0,1,0,0,-1.27,-1.27,1.27,1.27,-1.27,-1.27,1.27,         39P     71
1.27,1.,1.,1.,1.,-0.5,-0.5,0.0625,0.5,-0.5,0.0625,-0.5,0.5,           39P     72
0.0625,0.5,0.5,0.0625,-1.27,1.27,-1.27,1.27;                          39P     73
128,1,1,1,1,0,0,1,0,0,-1.27,-1.27,1.27,1.27,-1.27,-1.27,1.27,         41P     74
1.27,1.,1.,1.,1.,0.5,-0.5,-0.0625,-0.5,-0.5,-0.0625,0.5,0.5,          41P     75
-0.0625,-0.5,0.5,-0.0625,-1.27,1.27,-1.27,1.27;                       41P     76
128,1,8,1,2,0,1,0,0,0,-0.125,-0.125,0.125,0.125,                      43P     77
-3.14159265358979,-3.14159265358979,-3.14159265358979,                43P     78
-1.5707963267949,-1.5707963267949,0.,0.,1.5707963267949,              43P     79
1.5707963267949,3.14159265358979,3.14159265358979,                    43P     80
3.14159265358979,1.,1.,0.707106781186548,0.707106781186548,1.,        43P     81
1.,0.707106781186548,0.707106781186548,1.,1.,0.707106781186548,       43P     82
0.707106781186548,1.,1.,0.707106781186548,0.707106781186548,1.,       43P     83
1.,0.5,0.,0.0625,0.5,0.,-0.0625,0.5,0.5,0.0625,0.5,0.5,-0.0625,       43P     84
0.,0.5,0.0625,0.,0.5,-0.0625,-0.5,0.5,0.0625,-0.5,0.5,-0.0625,        43P     85
-0.5,0.,0.0625,-0.5,0.,-0.0625,-0.5,-0.5,0.0625,-0.5,-0.5,            43P     86
-0.0625,0.,-0.5,0.0625,0.,-0.5,-0.0625,0.5,-0.5,0.0625,0.5,-0.5,      43P     87
-0.0625,0.5,0.,0.0625,0.5,0.,-0.0625,-0.125,0.125,                    43P     88
-3.14159265358979,3.14159265358979;                                   43P     89
502,4,0.25,3.06161699786838D-17,-0.0625,0.25,                         45P     90
-3.06161699786838D-17,0.06249,0.5,6.12323399573677D-17,0.0625,        45P     91
0.5,6.12323399573677D-17,-0.0625;                                     45P     92
504,6,25,45,1,45,1,27,45,1,45,2,29,45,2,45,2,31,45,3,45,3,33,45,      47P     93
4,45,4,35,45,3,45,4;                                                  47P     94
406,1,6HSolid1;                                                       49P     95
314,74.9019607843137,74.9019607843137,74.9019607843137,;              51P     96
S      1G      2D     52P     96                                        T      1
