ISO-10303-21;
HEADER;
/* Generated by software containing ST-Developer
 * from STEP Tools, Inc. (www.steptools.com) 
 */

FILE_DESCRIPTION(
/* description */ (''),
/* implementation_level */ '2;1');

FILE_NAME(
/* name */ 
'E:\\National_Imports\\Product-Files\\CAD Files\\Rod Magnet\\NSN0018.s
tp',
/* time_stamp */ '2015-03-05T18:16:39-05:00',
/* author */ ('Scott Madsen'),
/* organization */ (''),
/* preprocessor_version */ 'ST-DEVELOPER v15.6',
/* originating_system */ 'Autodesk Inventor LT ',
/* authorisation */ '');

FILE_SCHEMA (('AUTOMOTIVE_DESIGN { 1 0 10303 214 3 1 1 }'));
ENDSEC;

DATA;
#10=MECHANICAL_DESIGN_GEOMETRIC_PRESENTATION_REPRESENTATION('',(#13),#69);
#11=SHAPE_REPRESENTATION_RELATIONSHIP('SRR','None',#81,#12);
#12=ADVANCED_BREP_SHAPE_REPRESENTATION($,(#14),#68);
#13=STYLED_ITEM('',(#90),#14);
#14=MANIFOLD_SOLID_BREP('Solid1',#39);
#15=PLANE('',#44);
#16=PLANE('',#45);
#17=FACE_BOUND('',#22,.T.);
#18=FACE_OUTER_BOUND('',#21,.T.);
#19=FACE_OUTER_BOUND('',#23,.T.);
#20=FACE_OUTER_BOUND('',#24,.T.);
#21=EDGE_LOOP('',(#31));
#22=EDGE_LOOP('',(#32));
#23=EDGE_LOOP('',(#33));
#24=EDGE_LOOP('',(#34));
#25=CIRCLE('',#42,0.125);
#26=CIRCLE('',#43,0.125);
#27=VERTEX_POINT('',#60);
#28=VERTEX_POINT('',#62);
#29=EDGE_CURVE('',#27,#27,#25,.T.);
#30=EDGE_CURVE('',#28,#28,#26,.T.);
#31=ORIENTED_EDGE('',*,*,#29,.F.);
#32=ORIENTED_EDGE('',*,*,#30,.F.);
#33=ORIENTED_EDGE('',*,*,#30,.T.);
#34=ORIENTED_EDGE('',*,*,#29,.T.);
#35=CYLINDRICAL_SURFACE('',#41,0.125);
#36=ADVANCED_FACE('',(#18,#17),#35,.T.);
#37=ADVANCED_FACE('',(#19),#15,.F.);
#38=ADVANCED_FACE('',(#20),#16,.T.);
#39=CLOSED_SHELL('',(#36,#37,#38));
#40=AXIS2_PLACEMENT_3D('placement',#58,#46,#47);
#41=AXIS2_PLACEMENT_3D('',#59,#48,#49);
#42=AXIS2_PLACEMENT_3D('',#61,#50,#51);
#43=AXIS2_PLACEMENT_3D('',#63,#52,#53);
#44=AXIS2_PLACEMENT_3D('',#64,#54,#55);
#45=AXIS2_PLACEMENT_3D('',#65,#56,#57);
#46=DIRECTION('axis',(0.,0.,1.));
#47=DIRECTION('refdir',(1.,0.,0.));
#48=DIRECTION('center_axis',(0.,0.,1.));
#49=DIRECTION('ref_axis',(-1.,0.,0.));
#50=DIRECTION('center_axis',(0.,0.,1.));
#51=DIRECTION('ref_axis',(-1.,0.,0.));
#52=DIRECTION('center_axis',(0.,0.,-1.));
#53=DIRECTION('ref_axis',(-1.,0.,0.));
#54=DIRECTION('center_axis',(0.,0.,1.));
#55=DIRECTION('ref_axis',(1.,0.,0.));
#56=DIRECTION('center_axis',(0.,0.,1.));
#57=DIRECTION('ref_axis',(1.,0.,0.));
#58=CARTESIAN_POINT('',(0.,0.,0.));
#59=CARTESIAN_POINT('Origin',(0.,0.,0.));
#60=CARTESIAN_POINT('',(0.125,1.53080849893419E-17,0.5));
#61=CARTESIAN_POINT('Origin',(0.,0.,0.5));
#62=CARTESIAN_POINT('',(0.125,1.53080849893419E-17,0.));
#63=CARTESIAN_POINT('Origin',(0.,0.,0.));
#64=CARTESIAN_POINT('Origin',(-7.011837515336E-18,-2.86808188311209E-18,
0.));
#65=CARTESIAN_POINT('Origin',(-7.011837515336E-18,-2.86808188311209E-18,
0.5));
#66=UNCERTAINTY_MEASURE_WITH_UNIT(LENGTH_MEASURE(0.000393700787401575),
#70,'DISTANCE_ACCURACY_VALUE',
'Maximum model space distance between geometric entities at asserted c
onnectivities');
#67=UNCERTAINTY_MEASURE_WITH_UNIT(LENGTH_MEASURE(1.E-6),#71,
'DISTANCE_ACCURACY_VALUE',
'Maximum model space distance between geometric entities at asserted c
onnectivities');
#68=(
GEOMETRIC_REPRESENTATION_CONTEXT(3)
GLOBAL_UNCERTAINTY_ASSIGNED_CONTEXT((#66))
GLOBAL_UNIT_ASSIGNED_CONTEXT((#70,#76,#73))
REPRESENTATION_CONTEXT('','3D')
);
#69=(
GEOMETRIC_REPRESENTATION_CONTEXT(3)
GLOBAL_UNCERTAINTY_ASSIGNED_CONTEXT((#67))
GLOBAL_UNIT_ASSIGNED_CONTEXT((#71,#76,#73))
REPRESENTATION_CONTEXT('','3D')
);
#70=(
CONVERSION_BASED_UNIT('__CONSTANT UNIT inch',#72)
LENGTH_UNIT()
NAMED_UNIT(#75)
);
#71=(
LENGTH_UNIT()
NAMED_UNIT(*)
SI_UNIT(.MILLI.,.METRE.)
);
#72=LENGTH_MEASURE_WITH_UNIT(LENGTH_MEASURE(25.4),#71);
#73=(
NAMED_UNIT(*)
SI_UNIT($,.STERADIAN.)
SOLID_ANGLE_UNIT()
);
#74=DIMENSIONAL_EXPONENTS(0.,0.,0.,0.,0.,0.,0.);
#75=DIMENSIONAL_EXPONENTS(1.,0.,0.,0.,0.,0.,0.);
#76=(
CONVERSION_BASED_UNIT('degree',#78)
NAMED_UNIT(#74)
PLANE_ANGLE_UNIT()
);
#77=(
NAMED_UNIT(*)
PLANE_ANGLE_UNIT()
SI_UNIT($,.RADIAN.)
);
#78=PLANE_ANGLE_MEASURE_WITH_UNIT(PLANE_ANGLE_MEASURE(0.01745329252),#77);
#79=SHAPE_DEFINITION_REPRESENTATION(#80,#81);
#80=PRODUCT_DEFINITION_SHAPE('',$,#83);
#81=SHAPE_REPRESENTATION('',(#40),#68);
#82=PRODUCT_DEFINITION_CONTEXT('part definition',#87,'design');
#83=PRODUCT_DEFINITION('NSN0018','NSN0018',#84,#82);
#84=PRODUCT_DEFINITION_FORMATION('',$,#89);
#85=PRODUCT_RELATED_PRODUCT_CATEGORY('NSN0018','NSN0018',(#89));
#86=APPLICATION_PROTOCOL_DEFINITION('international standard',
'automotive_design',2009,#87);
#87=APPLICATION_CONTEXT(
'Core Data for Automotive Mechanical Design Process');
#88=PRODUCT_CONTEXT('part definition',#87,'mechanical');
#89=PRODUCT('NSN0018','NSN0018',$,(#88));
#90=PRESENTATION_STYLE_ASSIGNMENT((#91));
#91=SURFACE_STYLE_USAGE(.BOTH.,#92);
#92=SURFACE_SIDE_STYLE($,(#93));
#93=SURFACE_STYLE_FILL_AREA(#94);
#94=FILL_AREA_STYLE($,(#95));
#95=FILL_AREA_STYLE_COLOUR($,#96);
#96=COLOUR_RGB('',0.749019607843137,0.749019607843137,0.749019607843137);
ENDSEC;
END-ISO-10303-21;
