                                                                        S      1
,,,7HNSN0091,21HAutodesk Inventor LT ,7Hunknown,32,38,7,99,15,,1.,1,4HING      1
CH,1,0.08,15H20150305.180939,0.000393700787401575,10000.,4HAdhi,,11,0,; G      2
     186       1                                                00000000D      1
     186             -35       1       0                               0D      2
     514       2                                                00010000D      3
     514                       1       1                               0D      4
     510       3                                                00010000D      5
     510             -35       1       1                               0D      6
     510       4                                                00010000D      7
     510             -35       1       1                               0D      8
     510       5                                                00010000D      9
     510             -35       1       1                               0D     10
     508       6                                                00010000D     11
     508                       1       1                               0D     12
     508       7                                                00010000D     13
     508                       1       1                               0D     14
     508       8                                                00010000D     15
     508                       1       1                               0D     16
     126       9                                                00010000D     17
     126       0              11       0                               0D     18
     126      20                                                00010000D     19
     126       0               2       0                               0D     20
     126      22                                                00010000D     21
     126       0              10       0                               0D     22
     128      32                                                00010000D     23
     128       0     -35      13       0                               0D     24
     128      45                                                00010000D     25
     128       0     -35       4       0                               0D     26
     128      49                                                00010000D     27
     128       0     -35       5       0                               0D     28
     502      54                                                00010000D     29
     502                       2       1                               0D     30
     504      56                                                00010001D     31
     504                       1       1                               0D     32
     406      57                                                00000000D     33
     406                       1      15                               0D     34
     314      58                                                00000200D     35
     314                       1       0                               0D     36
186,3,1,0,0,1,33;                                                      1P      1
514,3,5,1,7,1,9,1;                                                     3P      2
510,23,1,1,11;                                                         5P      3
510,25,1,1,13;                                                         7P      4
510,27,1,1,15;                                                         9P      5
508,4,0,31,1,0,0,0,31,2,1,0,0,31,3,0,0,0,31,2,0,0;                    11P      6
508,1,0,31,3,1,0;                                                     13P      7
508,1,0,31,1,1,0;                                                     15P      8
126,8,2,0,1,0,0,-3.14159265358979,-3.14159265358979,                  17P      9
-3.14159265358979,-1.5707963267949,-1.5707963267949,0.,0.,            17P     10
1.5707963267949,1.5707963267949,3.14159265358979,                     17P     11
3.14159265358979,3.14159265358979,1.,0.707106781186548,1.,            17P     12
0.707106781186547,1.,0.707106781186547,1.,0.707106781186548,1.,       17P     13
0.03125,3.82702124733548D-18,0.03125,0.03125,0.03125,0.03125,         17P     14
-1.91351062366774D-18,0.03125,0.03125,-0.03125,0.03125,0.03125,       17P     15
-0.03125,0.,0.03125,-0.03125,-0.03125,0.03125,                        17P     16
-1.91351062366774D-18,-0.03125,0.03125,0.03125,-0.03125,0.03125,      17P     17
0.03125,-3.82702124733548D-18,0.03125,-3.14159265358979,              17P     18
3.14159265358979,0.,0.,0.;                                            17P     19
126,1,1,0,0,1,0,-1.,-1.,0.,0.,1.,1.,0.03125,0.,0.03125,0.03125,       19P     20
0.,0.,-1.,0.,0.,0.,0.;                                                19P     21
126,8,2,0,1,0,0,-3.14159265358979,-3.14159265358979,                  21P     22
-3.14159265358979,-1.5707963267949,-1.5707963267949,0.,0.,            21P     23
1.5707963267949,1.5707963267949,3.14159265358979,                     21P     24
3.14159265358979,3.14159265358979,1.,0.707106781186548,1.,            21P     25
0.707106781186547,1.,0.707106781186547,1.,0.707106781186548,1.,       21P     26
0.03125,-3.82702124733548D-18,0.,0.03125,-0.03125,0.,                 21P     27
-1.91351062366774D-18,-0.03125,0.,-0.03125,-0.03125,0.,-0.03125,      21P     28
0.,0.,-0.03125,0.03125,0.,-1.91351062366774D-18,0.03125,0.,           21P     29
0.03125,0.03125,0.,0.03125,3.82702124733548D-18,0.,                   21P     30
-3.14159265358979,3.14159265358979,0.,0.,0.;                          21P     31
128,1,8,1,2,0,1,0,0,0,0.,0.,1.,1.,-3.14159265358979,                  23P     32
-3.14159265358979,-3.14159265358979,-1.5707963267949,                 23P     33
-1.5707963267949,0.,0.,1.5707963267949,1.5707963267949,               23P     34
3.14159265358979,3.14159265358979,3.14159265358979,1.,1.,             23P     35
0.707106781186548,0.707106781186548,1.,1.,0.707106781186548,          23P     36
0.707106781186548,1.,1.,0.707106781186548,0.707106781186548,1.,       23P     37
1.,0.707106781186548,0.707106781186548,1.,1.,0.03125,0.,0.03125,      23P     38
0.03125,0.,0.,0.03125,0.03125,0.03125,0.03125,0.03125,0.,0.,          23P     39
0.03125,0.03125,0.,0.03125,0.,-0.03125,0.03125,0.03125,-0.03125,      23P     40
0.03125,0.,-0.03125,0.,0.03125,-0.03125,0.,0.,-0.03125,-0.03125,      23P     41
0.03125,-0.03125,-0.03125,0.,0.,-0.03125,0.03125,0.,-0.03125,0.,      23P     42
0.03125,-0.03125,0.03125,0.03125,-0.03125,0.,0.03125,0.,0.03125,      23P     43
0.03125,0.,0.,0.,1.,-3.14159265358979,3.14159265358979;               23P     44
128,1,1,1,1,0,0,1,0,0,-0.079375,-0.079375,0.079375,0.079375,          25P     45
-0.079375,-0.079375,0.079375,0.079375,1.,1.,1.,1.,0.03125,            25P     46
-0.03125,0.,-0.03125,-0.03125,0.,0.03125,0.03125,0.,-0.03125,         25P     47
0.03125,0.,-0.079375,0.079375,-0.079375,0.079375;                     25P     48
128,1,1,1,1,0,0,1,0,0,-0.079375,-0.079375,0.079375,0.079375,          27P     49
-0.079375,-0.079375,0.079375,0.079375,1.,1.,1.,1.,-0.03125,           27P     50
-0.03125,0.03125,0.03125,-0.03125,0.03125,-0.03125,0.03125,           27P     51
0.03125,0.03125,0.03125,0.03125,-0.079375,0.079375,-0.079375,         27P     52
0.079375;                                                             27P     53
502,2,0.03125,3.82702124733548D-18,0.03125,0.03125,                   29P     54
3.82702124733548D-18,0.;                                              29P     55
504,3,17,29,1,29,1,19,29,1,29,2,21,29,2,29,2;                         31P     56
406,1,6HSolid1;                                                       33P     57
314,74.9019607843137,74.9019607843137,74.9019607843137,;              35P     58
S      1G      2D     36P     58                                        T      1
